#1
Hey Everyone,
I am still getting the hang of playing by ear and I came across this...



Is anyone able to tab this out. That little riff he does sounds pretty good, but I cant pick up on what he is doing.
Who's your daddy... well not me cuz ur momas ugly


These things are sex transport vehichles woot

This man just got a station wagon.
#2
gtosteve65
Which part are you interested in, what the supposedly clueless white guy plays or what the supposedly cool black guy plays?
#3
The cool black guy part. He plays about 6 different songs using the same or almost the same pattern and its pretty cool in my opinion. 
Who's your daddy... well not me cuz ur momas ugly


These things are sex transport vehichles woot

This man just got a station wagon.
#5
I would, but he plays almost the same tiny lick which was never part of any of those songs. Its just something simple thats made up for that part of the show.
Who's your daddy... well not me cuz ur momas ugly


These things are sex transport vehichles woot

This man just got a station wagon.
#6
gtosteve65
It's just a typical I IV V progression with E A & B.
Play it with the root + 5th & root + 6th shapes, like
  |------------    |------------    |------------
  |------------    |------------    |------------
  |------------    |------------    |------------
E |------------  A |2--2--4--4--  B |4--4--6--6--
  |2--2--4--4--    |0--0--0--0--    |2--2--2--2--
  |0--0--0--0--    |------------    |------------

You can also add the note an octave up from the root.
The little lick you want is like
---------------|
---------------|
---------------|
--------2------|
---2h4----4-p2-|
---------------|
on the E, move up a string for the A,
and play with a slide back down on the B
---------------|
---------------|
--------4------|
---4h6----6-\4-|
---------------|
---------------|
#7
NSpen1 THANK YOU! 
Who's your daddy... well not me cuz ur momas ugly


These things are sex transport vehichles woot

This man just got a station wagon.