#1
I'm not being greedy, I'm not asking for a tab, I realize that's just too much work for anyone. All I want to know, partly as a way to learn, is what the solo in this song consist of. Is it a spesific pentatonic scale? I've never heard anything sound better, and I can make out a few chords, at least from Dylans guitar (C, Am), but I can't make it sound anything close to what I hear.
It seems to be close to the 11th and 12th fret, but that's the extent of my knowledge based on the video. Any general description would be appreciated.

Anyone know? (Solo at 2:46)




HYzr0Ow1w3U
#3
AnrBjotk
It's mostly C major pentatonic or A minor pentatonic
C D E G A or A C D E G
Actually I think the C major because the C seems to be the home note/chord.
Plus sometimes adding in other notes from the full scale, like at one point Dylan plays a line including the F, e.g.
----------------------------------------------
----------------------------------------------
-------9-10----9-10---9-10-9-12---10---9------
-10-12-----------------------------------12---
----------------------------------------------
----------------------------------------------
#4
Quote by NSpen1
AnrBjotk
It's mostly C major pentatonic or A minor pentatonic
C D E G A or A C D E G
Actually I think the C major because the C seems to be the home note/chord.
Plus sometimes adding in other notes from the full scale, like at one point Dylan plays a line including the F, e.g.
----------------------------------------------

----------------------------------------------

-------9-10----9-10---9-10-9-12---10---9------

-10-12-----------------------------------12---

----------------------------------------------

----------------------------------------------

You magnificent bastard! Thank you. I wasn't that far off with C at least.  

n00b-question: What does "
C D E G A or A C D E G" mean?
 
#5
Quote by AnrBjotk
C D E G A or A C D E G" mean?

C D E G A is the C major pentatonic scale.
A C D E G is the A minor pentatonic scale.
Exactly the same notes, just starting from either C or A.
#6
Quote by NSpen1
C D E G A is the C major pentatonic scale.
A C D E G is the A minor pentatonic scale.
Exactly the same notes, just starting from either C or A.

I see. Thanks a million once again! You are a hero, sir