#1
Any of you savy people able to figure out the intro riff to this song? 00.00-00.24




I know you basically see what he does in the video but I can't figure it out. I tried playing around with the D scale, but it doesn't sound rigtht. Is it a different tuning or am I just blind?
#2
AnrBjotk It's in Drop D, but otherwise regular tuning.  I can do this tomorrow (~12 hours from now) if you don't get it or somebody else doesn't post  it.
#3
Quote by That_Ship
AnrBjotk It's in Drop D, but otherwise regular tuning.  I can do this tomorrow (~12 hours from now) if you don't get it or somebody else doesn't post  it.

I'd really appreciate that  
#4
Oops it actually is in a different tuning. Drop D with the b string tuned down to A.


e|----------0h2--------|---2-0h2p0h2p0---------|------------|
a|--------0----------0-|-----------------------|------------|
g|------2-------2----2-|-2-------------2-------|--------2---|
d|----0--------------0-|-----------------0-----|--2-3-4---0-|
a|---------------------|-----------------------|------------|
d|-0-------------------|-----------------------|------------|

e|-0h2--2--2-2-------------|-0h2--2---------------|--------------------------------|
a|-0----0--0-0-------------|-0----0---------------|--------------------------------|
g|-2----2--2-2------0------|-2----2-2-----------0-|-------0--------0---------------|
d|-0----0--0-0--0-2---4--0-|-0----0---2-0---0-2---|-----2--------0-----------------|
a|-------------------------|--------------3-------|-0-3------0-2------0h2p0--------|
d|-------------------------|----------------------|-------------------------3--0-0-|

e|-0h2--2-0-------------|---------------------------------|
a|-0----0-0-------------|---------------------------------|
g|-2----2-2-----------0-|-------0--------0----------------|
d|-0----0-0-2-0---0-2---|-----2--------0------------------|
a|--------------3-------|-0-3------0-2------0h2p0---------|
d|----------------------|--------------------------3--0-0-|

e|-0h2--2-2--2-2--2-0-|-0-0h2--2-2--2-2--2-0--|
a|-0----0-0--0-0--0-0-|-0-0----0-0--0-0--0-0--|
g|-2----2-2--2-2--2-2-|-2-2----2-2--2-2--2-2--|
d|-0----0-0--0-0--0-0-|-0-0----0-0--0-0--0-0--|
a|--------------------|-----------------------|
d|--------------------|-----------------------|
Last edited by That_Ship at May 1, 2017,
#5
Quote by That_Ship
Oops it actually is in a different tuning.  Drop D with the b string tuned down to A.


e|----------0h2--------|---2-0h2p0h2p0---------|------------|
a|--------0----------0-|-----------------------|------------|
g|------2-------2----2-|-2-------------2-------|--------2---|
d|----0--------------0-|-----------------0-----|--2-3-4---0-|
a|---------------------|-----------------------|------------|
d|-0-------------------|-----------------------|------------|

e|-0h2--2--2-2-------------|-0h2--2---------------|--------------------------------|
a|-0----0--0-0-------------|-0----0---------------|--------------------------------|
g|-2----2--2-2------0------|-2----2-2-----------0-|-------0--------0---------------|
d|-0----0--0-0--0-2---4--0-|-0----0---2-0---0-2---|-----2--------0-----------------|
a|-------------------------|--------------3-------|-0-3------0-2------0h2p0--------|
d|-------------------------|----------------------|-------------------------3--0-0-|

e|-0h2--2-0-------------|---------------------------------|
a|-0----0-0-------------|---------------------------------|
g|-2----2-2-----------0-|-------0--------0----------------|
d|-0----0-0-2-0---0-2---|-----2--------0------------------|
a|--------------3-------|-0-3------0-2------0h2p0---------|
d|----------------------|--------------------------3--0-0-|

e|-0h2--2-2--2-2--2-0-|-0-0h2--2-2--2-2--2-0--|
a|-0----0-0--0-0--0-0-|-0-0----0-0--0-0--0-0--|
g|-2----2-2--2-2--2-2-|-2-2----2-2--2-2--2-2--|
d|-0----0-0--0-0--0-0-|-0-0----0-0--0-0--0-0--|
a|--------------------|-----------------------|
d|--------------------|-----------------------|


Thank you so much. Never tried a different tuning thant normal, but guess I have to now Thanks again.
#6
Thanks again That_Ship! Not to be ungrateful (you have no idea how grateful I am) but is there any way to play it without a different tuning? (Forgive the n00b question...)  
#7
AnrBjotk It makes it harder to play, but you can keep it in standard tuning and put the capo on the 2nd fret instead of the 4th.


e|----------2h4--------|---4-2h4p2h4p2---------|------------|
b|--------0----------2-|-----------------------|------------|
g|------4-------4----4-|-4-------------4-------|----1-2-4---|
d|----2--------------2-|-----------------2-----|--4-------2-|
a|---------------------|-----------------------|------------|
e|-0-------------------|-----------------------|------------|

e|-2h4--4--4-4-------------|-2h4--4---------------|--------------------------------|
b|-0----0--0-0-------------|-0----0---------------|--------------------------------|
g|-4----4--4-4------2-1----|-4----4-4-----------2-|-------2--------2---------------|
d|-2----2--2-2--2-4------2-|-2----2---4-2-0-2-4---|---0-4--------2-----------------|
a|-------------------------|----------------------|-2--------2-4------2h4p2-0------|
e|-------------------------|----------------------|----------------------------0-0-|

e|-2h4--4-2-------------|---------------------------------|
b|-0----0-0-------------|---------------------------------|
g|-4----4-4-----------2-|-------2--------2----------------|
d|-2----2-2-4-2-0-2-4---|---0-4--------2------------------|
a|----------------------|-2--------2-4------2h4p2--0------|
e|----------------------|-----------------------------0-0-|

e|-2h4--4-4--4-4--4-2-|-2-2h4--4-4--4-4--4-2--|
b|-0----0-0--0-0--0-0-|-0-0----0-0--0-0--0-0--|
g|-4----4-4--4-4--4-4-|-4-4----4-4--4-4--4-4--|
d|-2----2-2--2-2--2-2-|-2-2----2-2--2-2--2-2--|
a|--------------------|-----------------------|
e|--------------------|-----------------------|
#8
Quote by That_Ship
AnrBjotk It makes it harder to play, but you can keep it in standard tuning and put the capo on the 2nd fret instead of the 4th.


e|----------2h4--------|---4-2h4p2h4p2---------|------------|
b|--------0----------2-|-----------------------|------------|
g|------4-------4----4-|-4-------------4-------|----1-2-4---|
d|----2--------------2-|-----------------2-----|--4-------2-|
a|---------------------|-----------------------|------------|
e|-0-------------------|-----------------------|------------|

e|-2h4--4--4-4-------------|-2h4--4---------------|--------------------------------|
b|-0----0--0-0-------------|-0----0---------------|--------------------------------|
g|-4----4--4-4------2-1----|-4----4-4-----------2-|-------2--------2---------------|
d|-2----2--2-2--2-4------2-|-2----2---4-2-0-2-4---|---0-4--------2-----------------|
a|-------------------------|----------------------|-2--------2-4------2h4p2-0------|
e|-------------------------|----------------------|----------------------------0-0-|

e|-2h4--4-2-------------|---------------------------------|
b|-0----0-0-------------|---------------------------------|
g|-4----4-4-----------2-|-------2--------2----------------|
d|-2----2-2-4-2-0-2-4---|---0-4--------2------------------|
a|----------------------|-2--------2-4------2h4p2--0------|
e|----------------------|-----------------------------0-0-|

e|-2h4--4-4--4-4--4-2-|-2-2h4--4-4--4-4--4-2--|
b|-0----0-0--0-0--0-0-|-0-0----0-0--0-0--0-0--|
g|-4----4-4--4-4--4-4-|-4-4----4-4--4-4--4-4--|
d|-2----2-2--2-2--2-2-|-2-2----2-2--2-2--2-2--|
a|--------------------|-----------------------|
e|--------------------|-----------------------|

Thank you thank you thank you thank you!
I can't believe no one has tabbed Circulus. They have such great songs... One day the time will come.
You're a champion, That_Ship !
#9
AnrBjotk Hi, feel free to request tabs you are interested in in Tab Requests queue. There you can get the help sooner and you will give an opportunity to a person, who will accomplish your request to get additional IQ points.