#1
Let You Go
Type - Tab
Part - Whole Song
Tuning - Standard

I know that there are chords already, but i'm more interested in tab version. If someone will find time to tab it I would be much grateful
#3
Quote by mystrage11
I know that there are chords already, but i'm more interested in tab version. If someone will find time to tab it I would be much grateful

And by the way, I believe it's "Let You Go"
#6
se]

e|---------------------------------------------------------------------------|
B|---------------------------------------------------------------------------|
G|----------5-5------------------5-5--------------------------------------|
D|---6-6---5-5----8-8----6-6-5-5----8(h)-----------------------------|
A|---6-6---3-3----8-8----6-6-3-3----8(h)-----------------------------|
E|---4-4-----------6-6----4-4----------6(h)-----------------------------|

e|---------------------------------------------------------------------------|
B|---------------------------------------------------------------------------|
G|----------5-5----8-8----8-8---------------5-5---------------------------------|
D|---6-6---5-5----8-8----8-8-8-8-6(h)---5-5----8-8(h)-----------------------|
A|---6-6---3-3----6-6----6-6-8-8-6(h)---3-3----8-8(h)-----------------------|
E|---4-4-------------------------6-6-4(h)-----------6-6(h)-----------------------|

************************************

| (h)  Hold

************************************