#1
Hi guys

UPDATE - I HAVE ATTACHED THE TAB EXTRACT YOU GUYS HAVE REALLY HELPED SO IF YOU CAN TELL ME WHAT YOU THINK THAT WOULD BE GREAT!

D:-----------------15--19--15--------------------------------------|
A|-----------17-----------------------17-----------------------|
F|-------16--------------------------------16------------------|
C|----------------------------------------------------------|
G|----------------------------------------------------------|
C|----------------------------------------------------------|


D:-----------------14--17-14--------------------------------------|
A|-----------15-----------------------15----------15-------------|
F|-------14--------------------------------14------------------|
C|----------------------------------------------------------|
G|----------------------------------------------------------|
C|----------------------------------------------------------|


I am trying to write a dual sweep harmony for the above riff that is in D minor/C Major (I believe). Does anyone know how I might go about doing this? I normally just write according to what sounds good but it would probably help if I knew some theory haha.

Thanks