#1
I uh, wrote how the code tags work on my notepad but that file got deleted on accident so uh, err, how do you do them again??  
(Clicking edit on my previous posts didn't give me any leads)
I have a small idea on how they work but it's going to take me hours to figure it out and might as well make a post so it'll be in the forum archives.
#3
iceburst
Ha, the CODE tags basically worked in that example so you didn't see them, only "infront of the tab and" written in CODE format!

Let's try.
Here's the tab

|-------3-3-3-------5--
|-------3-3-3-------6--
|-------4-4-4-------7--
|-------5-5-5-7-7-7-7--
|-------5-5-5-5-5-5-5--
|-3-3-3-3-3-3----------

Copy (or cut) and paste it, then put CODE tags around it - it's done all in one operation, not one in front then one at the end. The tags look like this, without the asterisks which I put there so you could see them.
[*CODE*] [/*CODE*]

So paste your tab, highlight the whole thing, click on the CODE symbol (#), and then it will look like this :

|-------3-3-3-------5--
|-------3-3-3-------6--
|-------4-4-4-------7--
|-------5-5-5-7-7-7-7--
|-------5-5-5-5-5-5-5--
|-3-3-3-3-3-3----------