#1
Hi 

I"m a new to guitar and reading tabs. I understand the concept of tabs and the tab below I think is pretty simple however I'm having a hard time with finger placement.

The below is an intro to a song by a band called the Pietasters and the song is "Without You".

Intro
|--------11-------|---------11-------|---------13-------|-------11---------|
|-----13----13----|----11----11----|----15----15----|----11----11-----|
|--13----------13-|-12----------12-|-15----------15-|-12----------12-|
|-----------------|----------------|----------------|----------------|
|-----------------|----------------|----------------|----------------|
|-----------------|----------------|----------------|----------------|


Is your third finger hitting the 3rd and second string of the 13th frett and first finger on first string 11th frett.  If you were to listen to this song how would you play it?
#2
dcormann12201
Use the code function to display tabs in the forums :
e|--------11-------|-------11-------|-------13-------|-------11-------|
B|-----13----13----|----11----11----|----15----15----|----11----11----|
G|--13----------13-|-12----------12-|-15----------15-|-12----------12-|
D|-----------------|----------------|----------------|----------------|
A|-----------------|----------------|----------------|----------------|
E|-----------------|----------------|----------------|----------------|
I'd play that with my third finger for the note on the G string at the 13th fret, and my fourth finger for the note on the B string at 13. Same for the shape moving up to 15.