#1
Trying to play Deep Cover by Sun Araw on guitar
Startet off with this version:
 
|--2--5--2--0-----0-2-------2--5--2--0-----0--2--0----0--------|
|--------------2-------------------------2----------2----------|
|--------------------------------------------------------------|
|--------------------------------------------------------------|
|--------------------------------------------------------------|
|--------------------------------------------------------------|

(find it here)

So far so good, but about 43 seconds into the song (when the singing starts), when the guitar "goes down" ( I'm no englishman, don't know how to call it).

I tried around a little and got to this
 
|--2--5--2--0-----0-2--------2-0---0---------------------------|
|--------------2-----------------2---2-0--2-0---0--------------|
|---------------------------------------------2---2-0----------|
|--------------------------------------------------------------|
|--------------------------------------------------------------|
|--------------------------------------------------------------|


But it doesn't sound correct, especially the last note. I tried different notes but none seem to to the trick.


Any help?
Last edited by lnardlp at Jul 17, 2017,