#1
Hi guys,



I am trying to learn this song on the guitar. The video is pretty clear, but I am unable to figure out the chords/voicings. Those shapes seem unfamiliar.

Can someone please help me out?

Thanks!
#2
Please allow me a bump.

I would really appreciate if someone could help me get started at least. I have never seen the chords/patterns, and I'm having a hard time figuring it out. Thank you.
#3
these should be most of the chords used. dont pay mind to the timing: I jotted down the chord themselves in gp5 but not the rhythm  

edit: the layout is all messed up but I dont know how to fix that sorry about that

Track 1
     Q     Q        Q     Q    Q    Q       Q               Q    Q    Q     
E||-------------|------------------------|-------|-------|-----------------|
B||-------------|------------------------|-------|-------|-----------------|
G||-------------|------------------------|-------|-------|--1----2----1----|
D||-------------|------------------------|-------|-------|--2----2----2----|
A||-------12----|--12----11----9----7----|--6----|-------|--2----2----2----|
E||--9----------|---9-----7----5----4----|--2----|-------|--0----0----0----|


   when moonlight                  turns shadow                     tells you 
   Q             Q    Q    Q       Q                       Q        Q         
--------------------------------|---------------|-------|-------|------------|
--------------------------------|---------------|-------|-------|------------|
--------------------------------|---------------|-------|-------|------------|
---9----------------------------|--4------------|-------|--6----|--11--------|
--11----------------------------|--6------------|-------|--7----|--12--------|
--12----------------------------|--7------------|-------|--9----|--14--------|


   world   relate    to              repeat x 4                     yoko  
   Q       Q         Q               Q                              Q     
--------|---------|-------|-------|--x----------|-------|-------|--------|
--------|---------|-------|-------|-------------|-------|-------|--------|
--------|---------|-------|-------|-------------|-------|-------|--------|
---9----|--4------|--6----|-------|-------------|-------|-------|--11----|
--11----|--6------|--7----|-------|-------------|-------|-------|--12----|
--12----|--7------|--9----|-------|-------------|-------|-------|--14----|


                                                   2:24           
  Q    Q    Q    Q       Q    Q    Q               Q       Q      
----------------------|-----------------|-------|-------|-------||
----------------------|-----------------|-------|-------|-------||
----------------------|--1----2----1----|-------|-------|-------||
-------2--------------|--2----2----2----|-------|--6----|--7----||
-------4--------------|--2----2----2----|-------|--6----|--7----||
-------5----4----2----|--0----0----0----|-------|--7----|--9----||
Last edited by Kirborg at Aug 24, 2017,
#4
Kirborg
Use the code function (# symbol).

Track 1
     Q     Q        Q     Q    Q    Q       Q               Q    Q    Q     
E||-------------|------------------------|-------|-------|-----------------|
B||-------------|------------------------|-------|-------|-----------------|
G||-------------|------------------------|-------|-------|--1----2----1----|
D||-------------|------------------------|-------|-------|--2----2----2----|
A||-------12----|--12----11----9----7----|--6----|-------|--2----2----2----|
E||--9----------|---9-----7----5----4----|--2----|-------|--0----0----0----|


   when moonlight                  turns shadow                     tells you 
   Q             Q    Q    Q       Q                       Q        Q         
--------------------------------|---------------|-------|-------|------------|
--------------------------------|---------------|-------|-------|------------|
--------------------------------|---------------|-------|-------|------------|
---9----------------------------|--4------------|-------|--6----|--11--------|
--11----------------------------|--6------------|-------|--7----|--12--------|
--12----------------------------|--7------------|-------|--9----|--14--------|


   world   relate    to              repeat x 4                     yoko  
   Q       Q         Q               Q                              Q     
--------|---------|-------|-------|--x----------|-------|-------|--------|
--------|---------|-------|-------|-------------|-------|-------|--------|
--------|---------|-------|-------|-------------|-------|-------|--------|
---9----|--4------|--6----|-------|-------------|-------|-------|--11----|
--11----|--6------|--7----|-------|-------------|-------|-------|--12----|
--12----|--7------|--9----|-------|-------------|-------|-------|--14----|


                                                   2:24           
  Q    Q    Q    Q       Q    Q    Q               Q       Q      
----------------------|-----------------|-------|-------|-------||
----------------------|-----------------|-------|-------|-------||
----------------------|--1----2----1----|-------|-------|-------||
-------2--------------|--2----2----2----|-------|--6----|--7----||
-------4--------------|--2----2----2----|-------|--6----|--7----||
-------5----4----2----|--0----0----0----|-------|--7----|--9----||
#5
Thank you so much, guys. I really appreciate it!

If you don't mind, what are some common techniques you guys use to figure out tabs for tracks you hear? I can think of figuring out by ear and jamming to it, but sometimes there are so many voicings and ways to play the same damn thing, it seems hard.

If anyone liked the song, here's the remix I originally loved: http://hypem.com/track/16sb3/Sun+Airway+-+Oh,+Naoko+(Houses+Remix).
#6
Quote by matharp
Thank you so much, guys. I really appreciate it!

If you don't mind, what are some common techniques you guys use to figure out tabs for tracks you hear? I can think of figuring out by ear and jamming to it, but sometimes there are so many voicings and ways to play the same damn thing, it seems hard.

If anyone liked the song, here's the remix I originally loved: http://hypem.com/track/16sb3/Sun+Airway+-+Oh,+Naoko+(Houses+Remix).

I don't really have any techniques. But if you know chords in general there's only so many options and you can check those. Like in the vid you posted, you can clearly hear the major and minor quality (3rd) ringing through the chords but you also hear there's generally few notes in the chord present (no exotic quality like 7th's or sus or something). If you know that there's only so many inversions to try (in this case it was root + 6th and root+ 3rd which are inversion of each other). So for me it comes down to general music theory and knowing how harmonies relate and what sound charactarizes different chords.
Last edited by Kirborg at Aug 26, 2017,