SouthernRoCkGoD
Riff Writer
Join date: May 2005
443 IQ
#1
havnt really posted tabs & chords in a while
heres a little solo tell me what u think

|-----7-------------------------------------------------------------------------------------------
|-10b---10-7--------------------------------------------------------------------------------------
|------------9b-7---7-7---7-9b-7---------9b-7--------------------------------------------
|-----------------9-----9--------9-7-9-7------9-7-9-7----7-7---7-7---7--7--7--7-9-
|------------------------------------------------------9-----9------9--9--9--9------
|-----------------------------------------------------------------------------------------------------


|---------------------10----------------10---------------------7--------------
|----10-7-10/12-12-12----12-10-12-12-12----12-10-12p10---12/10---10-7--------
|------------------------------------------------------11-------------9b-7-
|-9------------------------------------------------------------------------------------------------
|------------------------------------------------------------------------------------------------
|---------------------------------------------------------------------------------------------------


|-------------------------------------12--14t--
|----9--------------------------12-10-----15t---
|----9-7-------7-------7------------------16t---
|-9------9-7-9---9-7-9---9-7-9------------------------
|-----------------------------------------------------------
|----------------------------------------------------------


b = bend
/ = slide
p = pull off
h = hammer on
t = tremelo pick (pick the hell out of it up and down as fast as u can)
looking for a tempory internet band
pm me
SouthernRoCkGoD
Riff Writer
Join date: May 2005
443 IQ
#3
cant really record right at this moment sence its 4 am and i cant turn my amp up but come this morning ill do a recording, the solo is actually a little longer i just got tired of tabbging but ill post it in the morning
looking for a tempory internet band
pm me
SouthernRoCkGoD
Riff Writer
Join date: May 2005
443 IQ
#5
^_^ will do as soon as the sun rises hahaha so i can turn up my amp!
darm dorm life
looking for a tempory internet band
pm me
Noosie
Registered User
Join date: Sep 2005
34 IQ
#7
I definitly loved it even though there were some sloppy parts it didnt make it any less effective a pretty solid solo good work on it.
acrocks
blank space
Join date: Dec 2004
257 IQ
#8
very nice loved the recorded version of it absolutely and woo you didn't stay in the pentatonic scale coughlikeyouusedtocough
i think that maybe you could add a bit more to the end bit to the first line, sounded like you were building up for something and then didn't really end it the best as you could, seemed almost disappointing
but otherwise beautiful
check out mine? https://www.ultimate-guitar.com/forum/showthread.php?t=276457
seanfromlj
Registered User
Join date: Oct 2005
190 IQ
#9
the end of the first part is really repetitive. add more to it and it'll be good.
mcbradntasha
marshall amps forever!
Join date: Aug 2005
11 IQ
#10
love your playing....a little sloppy but awseome....wish i could play like that...i cant solo at all lol