SouthernRoCkGoD
Riff Writer
Join date: May 2005
443 IQ
#1

|-6-6---8-6-5-5h6p5---------------6-6---8-6-5-5h6p5---------------5-----6-------------
|-8-8-8-------------6-------------8-8-8-------------6-----------6---6-----6-----6---
|---0-----------------7~*-5-7~*-----0-----------------7~*\----5-------5-----5-----5-
|-----------------------------------------------------------3-----------------3------
|---------------------------------------------------------------------------------------------------------
|---------------------------------------------------------------------------------------------------------


|---------8------8----8---------------5-6-8-6-5-5h6p5---------
|-----------8----8h10-8-------------------------------6-------
|-------9-----9--------------------8b--------------------------------
|----10-----------------10\--------------------------------------------
|-10-------------------------7\6-6-----------------------8---
|----------------------------------------------------------------------------

tell me what you think
\ = slide up
h = hammer on
p = pull off
* = let ring
~= vibreto
b = bend
for a recording http://southernrockgod.dmusic.com/
under "pretty soothing intro"
looking for a tempory internet band
pm me