SouthernRoCkGoD
Riff Writer
Join date: May 2005
443 IQ
#1
heres a pretty cool new intro ive come up with tell me what you think

|-----7----------------------------------------------------------------------
|-------10-7---------------------------------------------------------------
|-9b----------9-9b-7---9-7-------------------------7---7h9-7~--
|--------------------9------9-7h9\-5-5b-5b-7b---/9---9---------------
|---------------------------------------------7---------------------
|---------------------------------------------------------------------------


|---------------------------------------------------------
|-10b-8---------------------------------0--
|-------9-7~-7h9p7-------7~-----------1----
|------------------9-7h9------------2-------
|-------------------------------0h2--------
|---------------------------0h3-------------


b = bend
h = hammer on
p = pull off
/ = slide down
\ = slide up
~ = vibreto
http://southernrockgod.dmusic.com/
"intro riff"
looking for a tempory internet band
pm me
Last edited by SouthernRoCkGoD at Nov 27, 2005,