loopdeloop
I'm a loser baby
Join date: Oct 2005
216 IQ
#1
Play it loose. It also sounds okay down 1/2 step or a full step.

[font="Courier New"] |---------------------------|-------------------------|
b|---------------------------|-------------------------|
G|---------------------------|-------------------------|
D|------------4-4-4-2-2-4-4--|--------4-4-4-2-2-4-2-4--|
A|---------------------------|-------------------------|
E|--2-5-2-0-2----------------|--2-5-2------------------|

e|---------------------------|--------------------------|
b|---------------------------|--------------------------|
G|---------------------------|--------------------------|
D|--------4-4-4-2-h-4-4-2-4--|--------4-4-4-2-2-2-------|
A|---------------------------|--------------------2220--|
E|--2-5-2--------------------|--2-5-2-------------------|

e|---------------------------|--------------------------|
b|---------------------------|--------------------------|
G|---------------------------|--------------------------|
D|--x-x-4-4-4-2-2-2----------|--x-x-4-4-4-2-2-2-2-2-2-0-|
A|--x-x-x-x-x-x-x-x-2-2-2-2--|--x-x-x-x-x-x-x-x-2-2-2-0-|
E|--x-x-2-2-2-2-2-2-0-0-0-0--|--x-x-2-2-2-2-2-2---------| [/FONT] 


http://s60.yousendit.com/d.aspx?id=14A8JW1ARC0SW3LTZUX5F06GC1
So turn off the lights cause it's night on the Sun....

if anything i say comes acrosss as pretentious, tell me what an asshole i am.
hthedinga
Registered User
Join date: Nov 2005
110 IQ
#3
Who are BRMC? I'm really not digging that riff. It's good to have the downbeat be just to the right of a bar when tabbing.