xxTNCxx
Registered User
Join date: Jan 2006
26 IQ
#1
ok, this song has a lot of different sounds, and everything, but bear with me....

INTRO/verse

D12-----12------------12-----12----------12----10---10----------10----10----------10----
A----12-----12----12-----12----12----12---12----10---10---10----10----10---10-----10
D----------------15-------------------15-----------------------10------------------10-----------
G----------------------------------------------------------------------------------------------------
B----------------------------------------------------------------------------------------------------
E----------------------------------------------------------------------------------------------------rpt

1st chorus

D12-12--12-12--12-12--12-12-12-----------------------------------------
A12-12--12-12--12-12--12-12-12--10-10--10-10--10-10--10-10-10
D15-15--15-15--15-15--15-15-15--10-10--10-10--10-10--10-10-10
G----------------------------------------------------------------------------------
B----------------------------------------------------------------------------------
E----------------------------------------------------------------------------------

D8-8--8-8--8-8--8-8-8--6-6--6-6--6-6--6-6-6
A8-8--8-8--8-8--8-8-8--6-6--6-6--6-6--6-6-6
D1010101010101010---------------------------
G-----------------------------------------------------
B-----------------------------------------------------
E------------------------------------------------------((NOTE: on the d line those are 10's))

D12-12--12-12--12-12--12-12-12-------------------------------------------
A12-12--12-12--12-12--12-12-12-10-10--10-10--10-10--10-10-10~
D15-15--15-15--15-15--15-15-15-10-10--10-10--10-10--10-10-10~
G-----------------------------------------------------------------------------------
B-----------------------------------------------------------------------------------
E-----------------------------------------------------------------------------------(~RING OUT)

2nd verse
(play legato)
D10----------10------10--------10-------10-------10-------10-
A----10---10------10--------10-------10-------10-------10----
D-------13------12--------10-------10-------10-------10-------
G--------------------------------------------------------------------
B--------------------------------------------------------------------
E--------------------------------------------------------------------rpt

D8--------8------8-----8-----8-----8----8-
A--8----8------8-----8-----8-----8-----8--
D----11----10-----8-----8-----8------8---
G---------------------------------------------
B---------------------------------------------
E---------------------------------------------rpt


This is only the first and second verse with the first chorus and the intro, i dont have the time right now to finish the song, but please, i encourage your feedback!!!!!


((I'll have the finished copy of this song done by tomorrow at the latest...))
xxTNCxx
Registered User
Join date: Jan 2006
26 IQ
#2
Any comments and criticism is welcome, please tell me what you think about this song...
Pr0phecy_X
Driven by suffering
Join date: Jun 2004
159 IQ
#4
You guys dont know by now?


INTRO/verse 

D12-----12------------12-----12----------12----10---10----------10----10----------10----
A----12-----12----12-----12----12----12---12----10---10---10----10----10---10-----10
D----------------15-------------------15-----------------------10------------------10-----------
G----------------------------------------------------------------------------------------------------
B----------------------------------------------------------------------------------------------------
E----------------------------------------------------------------------------------------------------rpt

1st chorus

D12-12--12-12--12-12--12-12-12-----------------------------------------
A12-12--12-12--12-12--12-12-12--10-10--10-10--10-10--10-10-10
D15-15--15-15--15-15--15-15-15--10-10--10-10--10-10--10-10-10
G----------------------------------------------------------------------------------
B----------------------------------------------------------------------------------
E----------------------------------------------------------------------------------

D8-8--8-8--8-8--8-8-8--6-6--6-6--6-6--6-6-6
A8-8--8-8--8-8--8-8-8--6-6--6-6--6-6--6-6-6
D1010101010101010---------------------------
G-----------------------------------------------------
B-----------------------------------------------------
E------------------------------------------------------((NOTE: on the d line those are 10's))

D12-12--12-12--12-12--12-12-12-------------------------------------------
A12-12--12-12--12-12--12-12-12-10-10--10-10--10-10--10-10-10~
D15-15--15-15--15-15--15-15-15-10-10--10-10--10-10--10-10-10~
G-----------------------------------------------------------------------------------
B-----------------------------------------------------------------------------------
E-----------------------------------------------------------------------------------(~RING OUT)

2nd verse
(play legato)
D10----------10------10--------10-------10-------10-------10-
A----10---10------10--------10-------10-------10-------10----
D-------13------12--------10-------10-------10-------10-------
G--------------------------------------------------------------------
B--------------------------------------------------------------------
E--------------------------------------------------------------------rpt

D8--------8------8-----8-----8-----8----8-
A--8----8------8-----8-----8-----8-----8--
D----11----10-----8-----8-----8------8---
G---------------------------------------------
B---------------------------------------------
E---------------------------------------------rpt


You have to use the code tags or your posts will get closed by a mod
read the stickies and your welcome.
What I Have In My Heart I'll Take To My Grave.
sk8kid4life
Registered User
Join date: Jan 2006
11 IQ
#5
nice intro for a song and all where u guys from?
(\__/)
(='.'=) This is Bunny. Put him in your signature and help
(")_(") him on his way to world domination.