inafantasy
:GASP:
Join date: Feb 2005
590 IQ
#1
I dont listen to Slayer, but, yes, I was angsty, and just happen to own a Death Metal pedal, so I made this.

All the notes on the low E are palm muted, and be sure to use plenty of pinch harmonics.
Played fast-ish, or "angry." Theme much?

e-------------------------------------------------------------------------------|
B-------------------------------------------------------------------------------|
G-----------------------------------7/9----------------------------------2/1-|
D-----------6--------------------------------------------------------3---3/2-|
A------7-8--------9-7-----8h10-----------7-8-7-----3---1h2---2------|
E-0-0--------0-0-----0-0-------------0-0--------0-0---0-----------------|

e--------------------------------------------------------------------4-|
B--------------------------------------------------------------6------|
G-------------------------------------------------------4--------5---|
D---------------------------------1---------------6-3------6--------|
A------7-8-----5--------2h3---------7-8-5-----------5----------|
E-0-0-----4-0---0-1-3-----4---0-0--------0---------------------|

Sidenote- The first 4 on the low E shouldn't be muted.

Enjoy!
Member #4 of the punctuation police, pm alex_haeni to join.
slipknot_69
What the ****
Join date: Feb 2005
76 IQ
#2
Click this and you'll actually learn how to post tabs the right way.
Marty Friedman > You
Last edited by slipknot_69 at Jan 21, 2006,