somebody_123
The Anonymous Guitarist
Join date: Sep 2005
425 IQ
#1
check out this fill idea:

e|-------------------------------------------|
B|-------------------10h11p10----------------|
G|-------------10h12----------12-10-9--------|
D|-------10h12------------------------10/12~-|
A|-10h12-------------------------------------|
E|-------------------------------------------|

i was kinda jamming away, and made this up
comments/crits?
We_Wont_Die
UG Senior Member
Join date: Jan 2006
292 IQ
#3
**** yeah!
Quote by Anton Szandor LaVey
He who makes a beast of himself takes away the pain of being a man.


My Lyrics:

Silent Oblivion
somebody_123
The Anonymous Guitarist
Join date: Sep 2005
425 IQ
#5
^ any particular reason?
i don't mind that you think it's bland, i just want to know why, so i can (maybe) improve it
dumpweed
Hail Satan (please dont!)
Join date: Jan 2006
120 IQ
#6
This is one of my little fills, its not bad, when you get the right timing

Iknow it looks easy but it does sound quite good


e|-------------------7^-----------|
b|---3/5---3---5-----------------|
g|---------------------------------|
d|---------------------------------| 
a|---------------------------------|
e|---------------------------------|

e|-------------------5^-----------|                             ^ = bend 
b|---3/5---3---5-----------------|                             /   = slide
g|---------------------------------|
d|---------------------------------| 
a|---------------------------------|
e|---------------------------------|


I think it's quite a nice little fill, you just have to figure out your own timing
ToolBass_dude
Lemon Fairy Liquid
Join date: Aug 2005
605 IQ
#7
eeh...it was ok, but was it meant to be fast or slow(so i can play it in the right context)?

Quote by Dogruitag
i think he wants to dream theater to be considered more metal, so he dyed his beard.


...

Quote by LookAlive
Lmfao, this is the best thread ever, aside from the fact that it involves a girl being harpooned through a tent.
SethMegadefan
UG's Star Wars Nerd
Join date: Dec 2004
2,020 IQ
#8
I was expecting it to be dull from the looks of it, but I like the way it ends. It really wraps it up nice. Nifty indeed!
dumpweed
Hail Satan (please dont!)
Join date: Jan 2006
120 IQ
#9
Quote by SethMegadefan
I was expecting it to be dull from the looks of it, but I like the way it ends. It really wraps it up nice. Nifty indeed!


Who's? Mine or the thread starters?
SethMegadefan
UG's Star Wars Nerd
Join date: Dec 2004
2,020 IQ
#10
^Threadstarter's. To be honest, I haven't even tried yours yet.
dumpweed
Hail Satan (please dont!)
Join date: Jan 2006
120 IQ
#11
Quote by SethMegadefan
^Threadstarter's. To be honest, I haven't even tried yours yet.



Mines really nothing special, i made it up when i was just chilling, in about 2 seconds,
its really the timing with mine.
SethMegadefan
UG's Star Wars Nerd
Join date: Dec 2004
2,020 IQ
#12
^Okay, I just tried it. It's alright, I guess, but like you said, it's nothing special. I just liked how the threadstarter's one ended so nice. Almost reminded me of Megaman, for some stupid reason.
Rox0r713
Annihilist
Join date: Sep 2005
444 IQ
#13
Hmm, interesting. So these are "nifty" sounding mini-riffs (or fillers)? Ok, how's this:

e|-----------------------------------------------|
B|-----------------------------------------------|
G|-----------------------------------------------|
D|---------8p7---5------5h7---8p7---5------------|
A|-5h7---------------7----------------------7----|
E|-----------------------------------------------|

I wrote that right now, just for you. <3 Enjoy.

Note: Pause for a tick between the 2nd 5h7 and the 2nd 8p7. Sounds better.
Last edited by Rox0r713 at Feb 5, 2006,
SethMegadefan
UG's Star Wars Nerd
Join date: Dec 2004
2,020 IQ
#14
Quote by Rox0r713
Note: I don't know how to make those boxes you put yours in. How do I?

You have to put it in code tags. Like
 this 
, only without the spaces.
This is coded.

Chances are it'll end up looking bad unless you make it in Notepad or something first and then copy/paste it in. There's a more in-depth explaination of it somewhere in the FAQ, but that's the general idea.
Rox0r713
Annihilist
Join date: Sep 2005
444 IQ
#15
Quote by SethMegadefan
You have to put it in code tags. Like
 this 
, only without the spaces.
This is coded.

Chances are it'll end up looking bad unless you make it in Notepad or something first and then copy/paste it in. There's a more in-depth explaination of it somewhere in the FAQ, but that's the general idea.


Thanks, gotcha.
somebody_123
The Anonymous Guitarist
Join date: Sep 2005
425 IQ
#16
Originally Posted by ToolBass_dude
eeh...it was ok, but was it meant to be fast or slow(so i can play it in the right context)?


If you're asking me, it should be played fast.