xgrindcorex
Registered User
Join date: Jan 2006
105 IQ
#1
meant to be played fast, played multiple times at the end and slowly fades out.

E||-------------------------------------------|
B||-------------------------------------------|
G||-------------------------------------------|
D||---------------------------------5---------|
A||-------2/3-----2/3--5-3-2-3----3-2-0-|
D||--0-0-----0-0----------------------------|


thoughts?
Bill43
I like it here
Join date: May 2003
1,893 IQ
#2
2.2 How do I make my tab display correctly?

When posting a tab, make sure you use the
 WRITE TAB HERE [/CODE ] tags (without the space) which will convert your tab to the correct font so it is readable.

Open up Windows Notepad. Write your tab in that program. Make sure that you place the open code tag at the top of the tab and the close code tag at the end. Once you're finished... click on edit, select all and then copy.... open a new thread here and then click edit and paste. There are keyboard shortcuts for this procedure, but I wont confuse you with them at this time. If you do exactly what I've typed above, then your tab will look just like it does in Notepad when you post your new thread here on UG. e.g.

[code]
e|--------------------------------------------------------| 
B|--------------------------------------------------------| 
G|--888-----------------888-------------------------------| 
D|-------9999/444--666-------9999--0--9--8--4--6----------| 
A|------------------------------------9--8--4--6----------| 
E|------------------------------------7--6--2--4--7p0-----|