\m/metallica\m/
Seasons
Join date: Dec 2004
1,153 IQ
#1
This is a nice little clean intro by my band, please tell me wut u think of it

It's relatively fast

e-----------------------------------
b-----0-----0-----0--3--0-----------
g----2-2---2-2---2-2--2--2----------
d---2---2-2---2-2---2--2--2---------
a--0-----0-----3--------------------
E-----------------------------------


This is played over and over again obviously, thanks for the comments
VANC3R
UG Newbie
Join date: Jan 2006
65 IQ
#2
this tab has very nice clean tone, especially with an acoustic
great job
SethMegadefan
UG's Star Wars Nerd
Join date: Dec 2004
2,020 IQ
#5
That's pretty cool, actually. It revolves nice when you play it over and over. It works great as an intro and you could most definitely add an intro guitar solo over it. That'd be sweeeeeeet.
PsychoFreak
Registered User
Join date: Jan 2005
955 IQ
#7
Just mess around. Your bound to get something that sounds good, and when you do, work from it
Quote by human-blasphamy
Didnt MCR do that song The Gay Parade It went like this
when I was A young boy
My father took me to the bedroom
and told me not to tell
TimiHendrix33
.
Join date: Sep 2005
629 IQ
#8
Sounds and looks just like Green Day's "Are We the Waiting", but a little different.
When your body's tired, exercise your mind.
SethMegadefan
UG's Star Wars Nerd
Join date: Dec 2004
2,020 IQ
#9
Quote by \m/metallica\m/
How should i go about adding a solo???

My guess would be something in A minor. But I don't know what would the absolute best; A minor just seems like it'd fit good.
Jankunas
Registered User
Join date: Feb 2005
315 IQ
#10
its very nice, but its too short, keep it coming
Jankunas
\m/metallica\m/
Seasons
Join date: Dec 2004
1,153 IQ
#11
Thanks for all the replies, umm could some one please tab out the A minor scale, or just give me a site where i could find it at, because i dont know wut it is
e|--------------------------------------------------
b|-0----3-----0-------------------------------------
g|-2----2-----0-------------------------------------
d|-2-x8-2-x8--2-x8--2-------------------------------
a|-0----0-----3-----2--x8---------------------------
D|------------------2-------------------------------


You can find how the exact thing goes at www.purevolume.com/darkestdaysoh my bands old name website, i kinda rushed on the recording part, so it doesn't sound up to par....
SethMegadefan
UG's Star Wars Nerd
Join date: Dec 2004
2,020 IQ
#12
Here you can put in whichever scale you want to find and it'll show up for you. A melodic minor, harmonic minor, whatever. It's all there!