hockey4life
Registered User
Join date: Feb 2006
21 IQ
#1
fast tempo intro

(finger picked)

e|----------------------------------------------------------|
B|----------------------------------------------------------|
G|----------------------------------------------------------|
D|----4----4----4----4----5----5----4----4----4----4--------|
A|--2----2----2----2----2----2----2----2----2----2----------|
E|-0-0--0-0--0-0--0-0--0-0--0-0--0-0--0-0--0-0--0-0---------|x1

e|----------------------------------------------------------|
B|----------------------------------------------------------|
G|--4-------4-------4---------------------------------------|
D|----5-4-5---5-4-5---5-4-5-7-5-4---4---4-2~----------------|
A|--------------------------------5---2---------------------|
E|-0-0-0-0-0-0-0-0-0-0-0-0-0-0-0-0-0-0-0-0------------------|x1

e|--3-2-----3-2-----3-2-----3-2-----------------------------|
B|------3-5-----3-0-----3-5-----3-0-------------------------|
G|----------------------------------------------------------|
D|----------------------------------------------------------|
A|----------------------------------------------------------|
E|-0-0-0-0-0-0-0-0-0-0-0-0-0-0-0-0--------------------------|x1

e|----------------------------------------------------------|
B|----------------------------------------------------------|
G|--5-4-------2-5-4-------5-4-------2-5-4-------------------|
D|------5-4-2-------5-4-2-----5-4-2-------5-4-2~------------|
A|----------------------------------------------------------|
E|-0-0-0-0-0-0-0-0-0-0-0-0-0-0-0-0-0-0-0-0-0-0--------------|x1

e|----------------------------------------------------------|
B|--------------4-5-7v~-------------------------------------|
G|--------2-4-5---------------------------------------------|
D|----4-5---------------------------------------------------|
A|--2-------------------------------------------------------|
E|-0-0-0-0-0-0-0-0-0----------------------------------------|x1

play quickly non-stop
e|-----------------------------------------------------------------|
B|-----------------------------------------------------------------|
G|-----------------------------------------------------------------|
D|--0-2--0-3--0-5--0-7--0-8--0-10--0-8-7--7-5---5-3--3-2~--0---0---|
A|-0----0----0----0----0----0-----0------0-----0----0-----5-5-3-3--|
E|-----------------------------------------------------------------|x3


what do you guys think?
Last edited by hockey4life at Feb 11, 2006,