somebody_123
The Anonymous Guitarist
Join date: Sep 2005
425 IQ
#1
Q=70
4/4
Let ring throughout
Clean guitar with a butload of chorus

    E E H.  E E H.  E E H.  E E H Q   E E H.  E E H.  E E H.  E E E E Q Q
E|------5-|-----5-|-----3-|-----3-3-|-----5-|-----5-|-----6-|-----------0--|
B|*-----6-|-----6-|-----3-|-----6-5-|-----6-|-----5-|-----8-|---------6---*|
G|------7-|-----5-|-----5-|-----5-5-|-----7-|-----5-|-----7-|-------6------|
D|----7---|---7---|---5---|---3-----|---7---|---7---|---5---|---2/7--------|
A|*-5-----|-5-----|-3-----|-3-------|-5-----|-5-----|-5-----|-0-----------*|
D|--------|-------|-------|---------|-------|-------|-------|--------------|

    E E E Q Q E   E E E Q Q  E   E E E Q Q E   E E E E E E E E    Q. Q E E E   W
E|--------------|--------------|-------------|------------------|------------|---|
B|*-------------|--------------|-------------|-----------------*|------------|---|
G|--------2-----|-------2---/7-|-------2-----|---2-----2--------|------------|---|
D|------0---0---|-----0---0----|-----0---0---|-------------2h3--|-0----------|---|
A|*---0-------0-|---0----------|---0-------0-|-1---1-3---3-----*|----0-----0-|---|
D|--0-----------|-0------------|-0-----------|------------------|------3-2---|-0-|

    SSSSSSSSSSSSSSSS   SSSSSSSSSSSSSSSS   S SSSS SSSS SSSS SSS   S SS SS SS SS SS SS SS S
E|-------------------|------------------|----------------------|---------------------------|
B|*---6---6---6---6--|---5---5---5---5--|----8----8----8----8--|----10----10----10----10--*|
G|---0-0-0-0-0-0-0-0-|--0-0-0-0-0-0-0-0-|---0-0--0-0--0-0--0-0-|---0--0--0--0--0--0--0--0--|
D|--8---8---8---8----|-7---7---7---7----|-10---10---10---10----|-12----12----12----12------|
A|*------------------|------------------|----------------------|--------------------------*|
D|-------------------|------------------|----------------------|---------------------------|


sorry for the clutter on the last line, had to conserve space
I think they sound good when played in sequence...any comments, crits, or suggestions would be appreciated!