#2
your voice has potential. you need to put more into it though. you have to do more than sing the words, you've got to feel them. give er some volume.
#3
Yeah, I realized that shortly after the recording. I have this thing where I'm very nervous about singing.

I'm over it now though... today I did a few more recordings of some songs... and I didn't mumble!
#4
Yeah man, the lead singer position is yours, if you want it.

You could do Lifehouse or something to that sort.
#5
Acoustic#3,

That's cool, because that's the stuff we're wanting to do. Lifehouse is basically my style of music. Thanks.
#6
try using this intro...

(copy and paste tab to notepad to read properly)
(tab needs to be in "Lucida Console" font)

Asus2 Dsus2
e|-------5--7p5-------------5--7p5--5--|-----7p5-------------5--7p5--|
B|--5/7--5--7p5--7\5---5/7--5--7p5--5--|-----7p5--7\5---5/7--5--7p5--|
G|--4/6----------6\4---4/6-------------|----------6\4---4/6----------|
D|-------------------------------------|--0-----------0--------------|
A|--0----------------0-----------------|-----------------------------|
E|-------------------------------------|-----------------------------|

F#m E
e|--0h2-5--2-------2--------|----0-------0-------0------|
B|--0h2-5--2-----------2----|--------0---------0--------|
G|------------2----------2--|----------1---1h2-----2/4--|
D|---------------4---4------|--2---2--------------------|
A|--------------------------|---------------------------|
E|--2-----------------------|---------------------------|
#7
hey man, i was stoked to hear your cover, but the site says your file has expired due to inactivity. you might want to repost, perhaps on a different site.

if you don't mind, send me a pm when you do. I'd really like to hear this.

-edgar