#3
/\ Thanks



 S S E   S E   S  S  S E E S S
|-------------------------------|
|-------------------------------|
|-----------------------------x-|
|-5h7-----5h7---7-----7-7-7-----|
|-0---x-0-0---0-0-(0)-0-0-0-x---|
|-------------------------------|
  E   S S E   S S +S  S E E E


  G5  D5  A5                    A7
  S E S E E +S  S E E  S   S    S E   S S E   S  S  S E E E
|-----------------------------|------------------------------|
|-----------------------------|------------------------------|
|-----2---------2----------x--|------------------------------|
|-----0---2-(2)---2-2--x------|-5h7---5-5h7---7-----7-7-7----|
|-5-------0-(0)---0-0-(0)-(0)-|-0---x-0-0---0-0-(0)-0-0-0----|
|-3---------------------------|------------------------------|
                                E   S S E   S S +S  S E E E


  G   D5  A5
  S E S E E +S  S E S S S  S
|-----------------------------|
|-3---------------------------|
|-4-------------2---2-2-------|
|-5---0---2-(2)-2-2-2-2---(5)-|
|-5-------0-(0)---0-0-0-------|
|-3---------------------------|


  A7                              G   D5  A
  S E   S S E   S  S  S E S S E   S E S E E +S  E. +S  E S
|-------------------------------|--------------------------||
|-------------------------------|-3---3---2-(2)-2--(2)-----||
|-------------------------------|-4---2---2-(2)-2--(2)---x-||
|-5h7---x-5h7---7-----7-7-7-7---|-5---0---2-(2)-2--(2)-----||
|-0---x-0-0---0-0-(0)-0-0-0-0---|-5-------0-(0)-0--(0)-----||
|-------------------------------|-3------------------------||
  E   S S E   S S +S  S E S S E


    
    E          C           G           F   Bb  E7
    E. S S S S S +S  S S S +S  S S S   S E S E E +E  S S S S S S
||-----------------------------------|---------------------------|
||o----------------------------------|---------------------------|
||-----------------------------------|---------------------------|
||--2--2-2-1-0-----------------------|---------------------------|
||o------------3-(3)-2-0-----------0-|-----1-------------0h2-0---|
||-----------------------3-(3)-3-3---|-1-------0-(0)-0h2-------2-|


                                                          To Coda
  A                   D/A      A         G   D/F#A
  E S S S S S S +S  S S    +S  +S  S E   S E S E E +E  S S S S S S
|--------------------------------------|-----------------0-------x-||
|--------------------------------------|-3---3---2-(2)---2-2-------||
|-------------2-(2)-2-4b5==(5)r(4)-2---|-4---2---2-(2)-2-2-2-2-----||
|---------2h4------------------------4-|-5---4---2-(2)-2-2-2-2-----||
|-0-2h3h4------------------------------|---------------------------||
|--------------------------------------|---------------------------||


  A                   D   A         G   D/E             A
  S S S S S S S S S S S S S S S S   S S S S S S S S S S e E E
|-----5-----5-----5-----5-----5---|---5-----5-----5-----5-5---|
|-5h7---5h7---5h7---5h7---5h7---5h|=7---5h7---5h7---5h7-------|
|---------------------------------|---------------------------|
|---------------------------------|---------------------------|
|---------------------------------|---------------------------|
|---------------------------------|---------------------------|


  A                              D     A
   S      +S   S  S  +S   e S  S  S  e  E  S  S
|-------------12--------------------------------|
|-12b13==(13)----13r(12)-10------10-12-10-12-10-|
|---------------------------9h11----------------|
|-----------------------------------------------|
|-----------------------------------------------|
|-----------------------------------------------|


         G            D               A
   a      +E    a      +E   a  +S   e S S  S  S  S  Q
|--------------------------------------------------------||
|-12b14==(14)r-12b14==(14)-14r(12)-10--------10h12-10\--o||
|-------------------------------------9-9h11-------------||
|--------------------------------------------------------||
|-------------------------------------------------------o||
|--------------------------------------------------------||

  
  &
  E                           E
  S E S E E +S  S E S S S S   S E S E E +S  S E S S S S
|---------------------------|---------------------------|
|---------------------------|---------------------------|
|---------------------------|---------------------------|
|-0h2-2---------2-----2-----|-0h2-2---------2-----2-----|
|-0h2-2---2-(2)-2---2-2-2---|-0h2-2---2-(2)-2---2-2-2---|
|-0-------0-(0)-----0---0---|-0-------0-(0)-----0---0---|
  Q.      E +Q      E   E     Q.      E +Q      E   E


  E                         A       D       A
  S  E  S E E +S  S E E E    S  S S S S S e H
|-------------------------|----------------------*|
|-------------------------|--2--2---3---3-3-2----*|
|-------------------------|--2--2---2---2-2-2----*|
|-0h=2--2---2-(2)-2-------|--2--2---4---4-4-2----*|
|-0h=2--2---2-(2)-2-----0-|-(0)-------------0----*|
|-0-(0)-0---0-(0)-0-------|----------------------*|
#6
great

(i hate that dott won)
Tears in waves, minds on fire
Nights alone by your side
#7
Quote by fronkpies
great

(i hate that dott won)



Thanks

Ha me too!! although if i played the track at the pace Peter Ebdon plays the game it would be 9 minutes long!!!!

I think i'll make this my mobile ring tone, whenever i go out to play snooker!
#9
hey ,

i read somewhere in your dmusic site that you think your voice is flat.
but i listened to iris and its not bad at all!
i would even say that it's better than a lot of people's here haha.
although it does need a bit of work.
but you've got potential man. haha just thought i'd let you know

p/s . sorry this doesn't have anything to do with your cover. haha.
#10
wow, that is beautiful. Good work.
PLAY UP POMPEY

POMPEY PLAY UP!

#11
Quote by evr88
hey ,

i read somewhere in your dmusic site that you think your voice is flat.
but i listened to iris and its not bad at all!
i would even say that it's better than a lot of people's here haha.
although it does need a bit of work.
but you've got potential man. haha just thought i'd let you know

p/s . sorry this doesn't have anything to do with your cover. haha.


Thanks for listening, and thanks for the encouragement!
#12
Nice!
I'm trying to learn this at the moment, royal pain in the ass.
People say it's not hard, well it ain't bloody easy either!
Well done!
Quote by Flying Couch
What do you think lesbians do in bed? Play cards? They have ways of sexytime just like everybody else.


W
Quote by Deliriumbassist
Why would you NOT scour the news for stories about incestual anal piping?