#1
im having a little trouble with the song "panama" well in the first part i would like some suggestions or i u have any tab that says wich fingers goes where, cuz im having trouble with the finger placing...yeah its a little weird but ill appreciate the help
thx!
#2
for witch part?

its pretty basic
VHT Special 6 ultra
TC HOF Reverb
Line 6 DL4
EHX OD Glove
Fender standard Tele
Ibanez Rga121
Taylor GA 214E
#3
OK, well I'll do my best:

|------------------|------------------|
|---9-----10-----7-|-----9-----10---7-|
|---9------9-----8-|-----9------9---8-|
|---9------9-----9-|-----9------9---9-|
|-----7-7----7-7---|-7-7---7-7----7---|
|------------------|------------------|
                              V - dive bomb
|-------------------|-----------------------|
|-----7-----8-----5-|-(5)-----0---(0)-------|
|-----7-----7-----6-|-(6)---x---------------|
|-----7-----7-----7-|-(7)-x-----------------|
|-7s5---5-5---5-5---|-----------------------|
|-------------------|-------------------0---|


There is the basic riff there. Here is how I finger it:

|------------------|------------------|
|---p------p-----I-|-----p------p---I-|
|---p------r-----m-|-----p------r---m-|
|---r------r-----r-|-----r------r---r-|
|-----I-I----I-I---|-I-I---I-I----I---|
|------------------|------------------|
                              V - dive bomb
|-------------------|-----------------------|
|-----p-----p-----I-|-(I)-----0---(0)-------|
|-----p-----r-----m-|-(m)---x---------------|
|-----r-----r-----r-|-(r)-x-----------------|
|*IsI---I-I---I-I---|-----------------------|
|-------------------|-------------------0---|

*The slide is performed with the index finger

Key:
p= Pinky Finger
r= Ring Finger
m= Middle Finger
I= Index Finger

Well, I hope that helps. Let me know if you need help with a different part of the song.
- FJ

Quote by Landover Baptist Church
If you find [balloons in his bedroom], it is a sign that Satan may have taken your child by the hand and skipped off together to see the movie, Up without your knowledge.


#4

|------------------|------------------|
|---9-----10-----7-|-----9-----10---7-|
|---9------9-----8-|-----9------9---8-|
|---9------9-----9-|-----9------9---9-|
|-----7-7----7-7---|-7-7---7-7----7---|
|------------------|------------------|
                              V - dive bomb
|-------------------|-----------------------|
|-----7-----8-----5-|-(5)-----0---(0)-------|
|-----7-----7-----6-|-(6)---x---------------|
|-----7-----7-----7-|-(7)-x-----------------|
|-7s5---5-5---5-5---|-----------------------|
|-------------------|-------------------0---|


|------------------|------------------|
|---r------p-----i-|-----r------p---i-|
|---r------r-----m-|-----r------r---m-|
|---r------r-----r-|-----r------r---r-|
|-----I-I----i-i---|-i-i---i-i----i---|
|------------------|------------------|
                              V - dive bomb
|--------------------|-----------------------|
|-----r-----r----i---|-(i)-----0---(0)-------|
|-----r-----r----m---|-(m)---x---------------|
|-----r-----r----r---|-(r)-x-----------------|
|-isi---i-i----------|-----------------------|
|--------------------|-------------------0---|


P-Pinky
M-Middle
I-Index
R-Ring


thats how i play it
VHT Special 6 ultra
TC HOF Reverb
Line 6 DL4
EHX OD Glove
Fender standard Tele
Ibanez Rga121
Taylor GA 214E
Last edited by the_white_bunny at May 11, 2006,
#5
omg thx thats exactly what i need , thank u !!!
btw, did u made that tab?
#6
I got the music tab off the site. But I tabbed the fingering myself.
- FJ

Quote by Landover Baptist Church
If you find [balloons in his bedroom], it is a sign that Satan may have taken your child by the hand and skipped off together to see the movie, Up without your knowledge.


#7
That isn't the way I play the song. Here's the tab I use, the finger is much easier:

E    Esu4   B	    E	   E  B   D	Dsu4  A
--------------------------------|-------------------------|-
-9----10-----7------9------10-7-|-7-----8-----7-----------|-
-9-----9-----8------9-------9-8-|-7-----7-----8-----------|-
-9-----9-----9------9-------9-9-|-7-----7-----9-----7\\\--|-
-7-----7------------7-------7---|-5-----5-----------O\\\--|-
---O-O---O-O---O-O----O-O-------|---O-O---O-O-------------|-
PM (all open E's)				    DB	     (Dive Bomb -
Hit the Twang Stick)
E    Esu4   B	    E      E  B   D     Dsus4 A
--------------------------------|-------------------------|
-9----10-----7------9------10-7-|-7-----8-----7-----------|
-9-----9-----8------9-------9-8-|-7-----7-----8-----------|
-9-----9-----9------9-------9-9-|-7-----7-----9-----####--|
-7-----7------------7-------7---|-5-----5-----------####--|
---O-O---O-O---O-O----O-O-------|---O-O---O-O-------------|
PS	     (Pick-Slide)
Pre-Verse:
C#min		     B/Bsu4   A
|-0---------------------------------------------|-
|-5------------------4-5-4--4\2--2-2------------|-
|-6------------------4-4-4--4\2--2-2------------|-
|-6------------------4-4-4--4\2--2-2--4^h^4~~~~-|-
|-4------4-4-4-4-4-4----------------------------|-
|-----------------------------------------------|-


It's just major chords with a suspension added with the pinky finger. Not too tough.
what happened to the proposed Kirk Hammett flamenco album?


His acoustic didn't sound good with wah pedal, I suppose.