#1
Yeah, so It's like the verse of a song, I intend to build upon it and turn it into a full song...

|-5-5-5-5-7-7-7-7-5-5-5-5-1-1----|
|-5-5-5-5-9-9-9-9-7-7-7-7-1-1-0-0|
|-6-6-6-6-9-9-9-9-7-7-7-7-2-2-1-1|
|-7-7-7-7-9-9-9-9-7-7-7-7-3-3-2-2| x2
|-7-7-7-7-7-7-7-7-5-5-5-5-3-3-2-2|
|-5-5-5-5-7-7-7-7-5-5-5-5-1-1----|

|-5-5-5-5-7-7-7-7-5-5-5-5-1-1------|
|-5-5-5-5-9-9-9-9-7-7-7-7-1-1-0-0-0|
|-6-6-6-6-9-9-9-9-7-7-7-7-2-2-1-1-2|
|-7-7-7-7-9-9-9-9-7-7-7-7-3-3-2-2-2|
|-7-7-7-7-7-7-7-7-5-5-5-5-3-3-2-2-0|
|-5-5-5-5-7-7-7-7-5-5-5-5-1-1------|


That's all I've got so far, it's also the verse, chorus is gonna be just chord trumming. Normal tuning with 25% distortion. 100% Treble and Contour. 0% FX. 25% Bass.

I know it's terrible
Proud Founder Of The Daisy Rock Rocks Club! PM me to join!
Member #7 Of The Pick Gnome Awareness Club
#3
Riffs & Recordings --> Tabs & Chords
Quote by Kensai
Maybe you've heard what the ladies say: "Once you go 77mm you don't go back"