#1
How do I acomplish these sweeps? i'm kind of a novice sweeper, and this is the only part of this song I cant play.

 Q=130
  S S S S S S  S S  S S  S S S S S S   S S S S S S S S  S S S S S S S S
|----------------8-12-8--------------|------------------------------------|
|-------------10--------10-----------|---------------9-12p9---------------|
|---------5-9--------------9-5-------|-----------7-9--------9p7-----------|
|-------7----------------------7-----|-------6-9----------------9-6-------|
|-----7------------------------------|---5-7------------------------7-5---|
|-5h8----------------------------5h8-|-7----------------------------------|


  S S S  S S  S S S  S S S  S S  S S S
|--------------------------------------|
|-----------------8-10-8---------------|
|---------------9--------9-------------|
|----------7-11------------11-7--------|
|-----7-10----------------------10-7---|
|-5-9--------------------------------9-|


  S  S S S S  S  S  S  S  S  S  S S S S  S
|------------------10-13-10------------------|
|---------------10----------10---------------|
|----------7-10----------------10-7----------|
|--------7--------------------------7--------|
|------8------------------------------8------|
|-5h10----------------------------------10---|


  S  S S  S S  S  S  S  S  S  S  S S  S S  S
|--------------------------------------------|
|----------------------12--------------------|
|----------------10-13----13-10--------------|
|-----------9h12----------------12-9---------|
|------8h11--------------------------11-8----|
|-7h10------------------------------------10-|
BOLD.
#2
Practice?? I don't really know what you wan help on. Do you need fingering or what?? Just keep in my that your pick should be pushing through the strings as you sweep. List what you need help on exactly.
Quote by tryhardslash
and plus you like blink 182 which prooves you are dumb and have no taste in music

you just follow trends

What a tard...
#3
Hammer on and pull off. It doesn't say it on the tab but just do it. And use your pinky for those long stretches.
#4
Just practice. Some of the ETB tabs are different from others, look for one that has the easiest sweeps.
#7
Start out with an upstroke, then a down stroke, follow that until the breaks in the sweep.

Bars 1, 3, and 4 should be sweeped whenever possible, and alternate/economy picked in the same string parts.

Bars 2 and 5 are straight up alternate/economy. Whichever works best.

Pretty simple...
#8
the song was recorded with alternate picking.
A womans heart is a deep ocean of secrets



=