#1
ok...... here's a tab i wrote for a piece of my music coursework and for my band (either to be named Tale of two hearts OR Fable of Envy, please vote in the promo ure band forum) ......... i haven't got a definite name for the song yet but will be added in time............

Tuning: EADGBe (standard)

|--------------|--------------|---------------|--------------|--------------|
|--------------|--------------|---------------|--------------|--------------|
|--------------|--------------|---------------|--------------|--------------|
|--------------|--------------|---------------|--------------|--------------|
|------5h6-6-3-|------5h6-6-3-|-----3-5h6-6-3-|------5h6-6-3-|------5h6-6-3-|
|----4---------|----6---------|---------------|----6---------|----4---------|

|--------------|--------------|--------------|
|--------------|--------------|--------------|
|--------------|--------------|--------------|
|--------------|--5--3--------|--------------|
|------5h6-6-3-|--------6--5--|(5)3----------|
|-3------------|--------------|------6--4--3-|

|--------------|--------------|---------------|--------------|--------------|
|--------------|--------------|---------------|--------------|--------------|
|--------------|--------------|---------------|--------------|--------------|
|--------------|--------------|---------------|--------------|--------------|
|------5h6-6-3-|------5h6-6-3-|-----3-5h6-6-3-|------5h6-6-3-|------5h6-6-3-|
|----4---------|----6---------|---------------|----6---------|----4---------|

|---------------|--------------|---------------#-|
|---------------|--------------|---------------#-|
|---------------|--------------|---------------#-|
|---------------|--6--5--3--5--|(5)3-----------#-|
|-------5h6-6-3-|--------------|------6--5--3--#-|
|-----3---------|--------------|---------------#-|

Legend:
h = hammer on
# = let ring
('number') = continues as part of last bar from number placed in brackets. (is part of the same sequence/line of notes with no pause between bars).

hey... i hope you like it and please r8 it for me lol.... it would be really helpful lol, it's not my best writing , but my other songs are too wierd to actually write down what i'm playing lol..........

thanx...... Evill Olval
>><<
Last edited by Evill Olval at May 25, 2006,
#2
Use code. Write:
 (without the spaces) and when you've written the tab write 
(again without the spaces).

Because now it just looks fucked up and it's very hard to read.
When I heard smoking would kill me, I bought shares in Dunhill and Marlboro - Thomas Geraghty

If we don't change it, nothing will fucking change.
#3
will sum1 please try my riff out...... please..... i promise ull like it...... and please leave some comments on it here aswell.... thanx
>><<
#4
this riff is actually pretty cool
only played it once or twice but i get the hang of it, got a real nice sound to it

i am willing to start up a band with you if ya want
will PM you now

oh
and i prefer Fable of Envy as a name
simply because a tale of two hearts sounds a bit...cliched almost...
#6

|--------------|--------------|---------------|--------------|
|--------------|--------------|---------------|--------------|
|--------------|--------------|---------------|--------------|
|-----4--5--2--|(2)4-----2----|-----4--5--2---|(2)4-----2----|
|---2----------|------5-----4-|---------------|------5-----4-|
|--------------|--------------|---5-----------|--------------|


|--------------|--------------|---------------|--------------|
|--------------|--------------|---------------|--------------|
|--------------|--------------|---------------|--------------|
|-----4--5--2--|(2)4-----2----|-----4--5--2---|(2)4--5--2----|
|--------------|------5-----4-|---------------|------------4-|
|---3----------|--------------|---2-----------|--------------|


 <------------------OR------------------>


|--------------|--------------|---------------|--------------|
|--------------|--------------|---------------|--------------|
|--------------|--------------|---------------|--------------|
|-----4--5--2--|(2)4-----2----|-----4--5--2---|(2)4-----2----|
|---2----------|------5-----4-|---------------|------5-----4-|
|--------------|--------------|---5-----------|--------------|


|--------------|--------------|------------------------------|
|--------------|--------------|------------------------------|
|--------------|--------------|------------------------------|
|-----4--5--2--|(2)4-----2----|-4h5-5-2h5-5---2h4-----2------|
|--------------|------5-----4-|-------------5-----4h5--------|
|---3----------|--------------|------------------------------|


>><<
#8
lol i'd write more outlol, but i'd literally be here all day.....1 thing tho ,..... they r in the same style rent they?????
>><<