#1
A little new to writing my own solo's, just making sure I'm on the right track.

Standard Tuning: EADGBe

e|-0h2-3-3/5-5/7-10p8p7------------------------------------------
B|0---------------------10p8p7-----------------------------------
G|----------------------------9p7/5---------7h9-7-7/5-5/4-4/2-2h4
D|---------------------------------5/7~--7h9---------------------
A|---------------------------------------------------------------
E|---------------------------------------------------------------

e|-------------------------------------------------------432432432432432432
B|-------------------------------------432432432432432432------------------
G|-------------------432432432432432432------------------------------------
D|-432432432432432432------------------------------------------------------
A|-------------------------------------------------------------------------
E|-------------------------------------------------------------------------
Last edited by GuitarGuyScot at May 27, 2006,
#2
Don't write a solo. Just improvise. All though it's good to have something to keep you on track. Like little licks here and there.

Looks good.
#3
sounds good to me. I dont knwo how YOU play it. but it's sounds like it resolves too late.
e -------15^1-
b ----13-------
g -14----------
#4
LP Junior: I learned the guitar purely for solo's But thanks for the advice. I'll look into improvising smaller licks throughout the song then a whole minute and half solo

a Peyote Coyote: It's just the beginning of it. I have it posted here for critique so as I update it I know how I'm doing so far. Don't want to have a bad apple in the basket as I put more in it