#1
Suprisingly the song is in Dropped D.
If anyone wants a recording, ill upload it to a server later.
This is a slow song, acoustic guitar or just clean tone dunno.

TERMS
DROP D
E|-3-3-3333--22-22---------------33-3---
B|-3-3-3333--33-33--3-3-3-33-----33-3---
G|-0-0-0000--22-22--0-x-x-xx-----33-3---
D|-0-0-0000--00-00--0-3-3-33/55--11-10--
A|-5-5-5555--00-00--0-x-x-xx/xx--11-10--
D|-5-5-5555--00-00--0-3-3-33/55--11-10--

Chorus
E|--------------------------------------------------
B|--------------------------------------------------
G|--------------------------------------------------
D|-------5---------------7----------------8---------
A|---5------5---5----7------7---7----8-------8---8--
D|-5---5------5----7---7------7----8---8-------8----

E|------------------
B|------------------
G|------------------
D|--------10--------
A|---10-------10--10
D|-10---10------10--

Switch
E|------------------------------------------------
B|--------7----------10----------11-------------13
G|--------6-----------9----------10-------------12
D|--------5--5/-------7--7/-------8--8/---------10
A|---5----5--5/--7----7--7/--8----8--8/--10-----10
D|-5---5--5--5/7---7--7--7/8---8--8--8/10---10--10

Lead
E|-------------------
B|---------15--------
G|-15b---14--15------
D|-17b----------17---
A|-------------------
D|-------------------

E|----------------------------------
B|----------------------------------
G|-15--14--14-15-14-----------------
D|------------------17--15--17-15---
A|--------------------------------17
D|----------------------------------

How long have you gone w/o Masturbating

About a month or so. Had somebody else doing it for me at the time.