#1
Hi I was fiddling about on my guitar and i played this riff.
I really recognise it but can't think what song it is

can anyone tell me what it is
or
what it is like

thanks

e|----------0---------------------0-------------------|
B|-------3-----3--------------3-----3----------------|
G|----4-----------4--------4-----------4-------------|
D|-----------------------------------------------------|
A|--2--------------------2----------------------------|
E|-----------------------------------------------------|

You have to play it slow and in 3'
Equipment
Gibson - Les Paul Junior
Fender - Jagstang
Squier - Tom Delonge
Cort - Katana
Peavy - Vintage Electro-Acoustic
Marshall - MG100DFX


--> --> --> --> --> --> --> --> --> ...
Last edited by Sappy Old Age at May 28, 2006,
#3
Nah its not that
its much much slower than that
but thanks anyway
Equipment
Gibson - Les Paul Junior
Fender - Jagstang
Squier - Tom Delonge
Cort - Katana
Peavy - Vintage Electro-Acoustic
Marshall - MG100DFX


--> --> --> --> --> --> --> --> --> ...
#4
Sounds sort of like Everybody Hurts, but I know it's not
Originally Posted by jajp001
White man came (Cumming noise)
Across the sea (Wow!!!)
Brought us pain (Right in the eye, it was)
And misery ( Points to pregnant sister)
Run to the hills, iron maiden