#1
well, how would you harmonize this?? (P.M all opens, h= Harmonic pick)


G|-----------------------------------------------------
D|---------10---9-------7---9-------12--10h---|
A|--0-0-------0----0-0---0----0-0---------------|
D|--------------------------------------------------|
Epiphone Custom 1966 SG w/EMG 85(B)
Epiphone Les Paul
Peavey Valveking
Boss SD-1 Overdrive; NS-2
Fender Tuner
#2
Play another interval from the scale you like (most people like to do it in 3rds or 5ths as I hear) and play it along with that riff.
#3
G|-----------------------------------------------------
D|---------14---12-------10---12-------15--14h---|
A|--0-0-------0----0-0---0----0-0---------------|
D|--------------------------------------------------|


yup
I'm not racist.

I hate everyone the same.