#1
this song doesnt have a title .. easy to play... crit !

                                    C Major                                     


Track 1
     H        Q    E  E     Q    E  E  Q    E  E     E  H        E  E  S  S   
E||----------------------|------------------------|--------------------------|
B||-----------8----6--5--|-------5--6--5----------|--------------------------|
G||--5-------------------|--7---------------7--5--|--7--5--------0--2--4s-2s-|
D||----------------------|------------------------|--------------------------|
A||----------------------|------------------------|--------------------------|
E||----------------------|------------------------|--------------------------|


  H        Q    E  E     Q    E  E  Q    E  E     E  H        Q    E   
----------------------|------------------------|----------------------|
-----------8----6--5--|-------5--6--5----------|--------------8----6--|
--5-------------------|--7---------------7--5--|--7--5----------------|
----------------------|------------------------|----------------------|
----------------------|------------------------|----------------------|
----------------------|------------------------|----------------------|


                             tr                                             
  E   H         Q     E      H             H           H        Q    E  E   
-------------------------|--10(12)------------------|----------------------|
--8--12--------13----12--|----------------13--------|-----------8----6--5--|
-------------------------|--------------------------|--5-------------------|
-------------------------|--------------------------|----------------------|
-------------------------|--------------------------|----------------------|
-------------------------|--------------------------|----------------------|


  Q    E  E  Q    E  E     H         Q    E  E     H         Q    E  E   
------------------------|-----------10----7--5--|-----------10----7--5--|
-------5--6--5----------|--3--------------------|--8--------------------|
--7---------------7--5--|-----------------------|-----------------------|
------------------------|-----------------------|-----------------------|
------------------------|-----------------------|-----------------------|
------------------------|-----------------------|-----------------------|


  H        E  E  E  E     E  H        Q    S  S    E  H        Q    S  S  
--8--------------------|-----0------------------|------------------------|
-----------------0--1--|--3-----------3----0h-1-|--0--1------------------|
-----------0--2--------|------------------------|--------------2---------|
-----------------------|------------------------|-------------------3h-5-|
-----------------------|------------------------|------------------------|
-----------------------|------------------------|------------------------|


  E  H        Q    S  S    E  H        E  E  E     E  Q     H         E   
------------------------|-----------------------|------------------------|
------------------------|-----------------3--1--|--0--1----/8~--------6--|
------------------------|-----------------------|------------------------|
--3--2--------0----3s-2-|--0--2-----------------|------------------------|
------------------------|-----3-----------------|------------------------|
------------------------|-----------------------|------------------------|


  Q.     Q    E  Q       H        Q    E  E     Q    E  E  Q    E  E   
----------------------|----------------------|------------------------|
--L-------------------|-----------8----6--5--|-------5--6--5----------|
---------0----2--4----|--5-------------------|--7---------------7--5--|
----------------------|----------------------|------------------------|
----------------------|----------------------|------------------------|
----------------------|----------------------|------------------------|


  E  H        Q    E     E  Q    E  E  Q    E     E  H        Q    E   
----------------------|------------------------|----------------------|
--------------8----6--|--5-------5--6--5-------|----------------------|
--7--5----------------|-----7---------------7--|--5--7-------------5--|
----------------------|------------------------|--------------7-------|
----------------------|------------------------|----------------------|
----------------------|------------------------|----------------------|


  Q     Q    E  E  E  E      W                  
--------------------------|-------------------||
--------------------------|-------------------||
--7s----9----7--5--7--5~--|--L----------------||
--------------------------|-------------------||
--------------------------|-------------------||
--------------------------|-------------------||


Duration Legend
---------------
W - whole
H - half
Q - quarter
E - 8th
S - 16th
T - 32nd
X - 64th
. - note dotted
|-n-|  - n-tuplets


Tablature Legend
----------------
L - tied note
x - dead note
g - grace note
(n) - ghost note
> - accentuded note
NH - natural harmonic
AH - artificial harmonic
TH - tapped harmonic
SH - semi harmonic
PH - pitch harmonic
h - hammer on
p - pull off
b - bend
br - bendRelease
pb - preBend
pbr - preBendRelease
brb - bendReleaseBend
\n/ - tremolo bar dip
\n - tremolo bar dive
-/n - tremolo bar Release up
/n\ - tremolo bar inverted dip
/n - tremolo bar return
-\n - tremolo bar Release down
S - shift slide
s - legato slide
/ -  slide into from below or out of upwards
\ -  slide into from above or out of downwards
~ - vibrato
W - wide vibrato
tr - trill
TP - tremolo picking
T - tapping
S - slap
P - pop
< - fade in
^ - brush up
v - brush down



Check out my other songs too,
https://www.ultimate-guitar.com/forum/showthread.php?t=348930
Attachments:
cmaj.zip
#2
nice job man. short, but very well put together, especially the chordal accompaniment. the B diminished really added some flavor in the 7th measure.