#1

e-----5--------------------------
b-7-3-6-5---------------------------
g-8-4-7-6---------------------------
d-9-5-7-7---------------------------
a-9-5-5-7---------------------------
E-7-3---5--------------------------

can someone plz tell me what scale i can solo over this with i play it like this one above or i also play it like the one below i play each one 8 times in up and down strokes...i just can't figure out what scale im useing so if someone can tell me that would be great thx


e-------------------------------
b-------------------------------
g-----7--------------------------
d-9-5-7-7---------------------------
a-9-5-5-7---------------------------
E-7-3---5--------------------------


cam
Quote by Martyr's Prayer
Only in America can a young black boy become an old white lady.


Co Founder of the "I hate Chuck Norris" Club. PM me or ibanezplayer27 to join
#2
B, G, Dm, A. Um.... That D minor isn't diatonic. But if you just play the powerchords, I'd say using the B minor pentatonic because the B major and A major put you in the key of D, and the relative minor is B.


Bminor Pentatonic.

------------------------------7 10---------------
------------------------7-10--------------------
-------------------7-9-------------------------
--------------7-9------------------------------
---------7-9-----------------------------------
--7-10------------------------------------------
#3
ok now that you say that could i use all the shapes or boxes down the neck like the next box would be

e---------------------------------10-12----
b-------------------------10-12-----
g-------------------9-11-----------
d-------------9-12-----------------
a-------9-12-----------------------
E-10-12-----------------------------

and so on down the next right im just making sure and thx for helping me out
Quote by Martyr's Prayer
Only in America can a young black boy become an old white lady.


Co Founder of the "I hate Chuck Norris" Club. PM me or ibanezplayer27 to join