#1
Anyone got some tabs on some wicked sounding scales or exotic's i love the Egyptian scale that i have a copy of its pretty wicked sounding post away if you got some tabs on scales...or links whatever
#2
The only one I can think of is the harmonic minor

e|:|---|---|---|---|
B|:|---|---|---|---|
G|:|---|---|---|---|
D|:|---|-0-|-0-|---| < Playing around with the four notes furthest 
A|:|-0-|---|-0-|-0-| < to the right sounds rather egyptian
E|:|-0-|---|-0-|-0-|

example:

e|:|--------------------------------------------|
B|:|--------------------------------------------|
G|:|-8h9-8h9p8---------8------------------------|
D|:|-----------10-9-10---10-9-7-9-10-9----------|
A|:|-----------------------------------10-9-7---|
E|:|--------------------------------------------|
Last edited by Mathamology at Jun 1, 2006,
#6
Gypsy scale is one of my favorites:

This is the part mostly used:
* is the root note
e|:|---|---|---|---|---|---|---|
B|:|---|---|---|---|---|---|---|
G|:|---|---|-0-|-0-|---|-0-|-0-|
D|:|---|-0-|---|-0-|-0-|---|---|
A|:|-0-|-0-|---|-0-|-0-|---|---|
E|:|---|-*-|-0-|---|---|---|---|
#8
Quote by GuitarsRule!123
thanks Srry bout my other post:S this must have been moved without me knowing i didnt post here Earlyer lol

you still posted it in more then 1 forum, and thats a no no
#10
You may be interested in my Jam Tracks Exotica disc. It features backing tracks for 10 exotic scales:

Arabian
Balinese
Byzantine
Chinese
Gypsy Minor (aka Hungarian Minor)
Harmonic Major
Harmonic Minor
Hindustan
Japanese
Spanish Gypsy (aka Phrygian Dominant)

There are audio samples of each scale being played as well as fingering patterns (both on-screen and print versions).
Summer Sale: Save 20% on Jam Tracks or Exotica. Save 30% when you buy both. Sale ends September 4th.
www.UnderTheGroove.com