#1
Ok so this is the intro/chorus(?) i just figured out this little riff

Guitar 1

E|----------------------------------------------|
B|----------------------------------------------|
G|----------------------------------------------|
D|----------------------------------------------|
A|----7h8-----7h8----7h8-------7h8p7-5h7p5-3h5p3|
D|0-0-----0-0------0------0-00------------------|

...then the second guitar comes in and harmonizes

Guitar 2

E|------------------------------------------------------------------------------------|
B|------------------------------------------------------------------------------------|
G|------------------------------------------------------------------------------------|
D|----7h8-----8h10-----10h12------12h13p12-10h12p10-8h10p8-7h8p7----------------------|
A|0-0-----0-0------0-0-------0-00-----------------------------------------------------|
D|0-0-----0-0------0-0-------0-00-----------------------------------------------------|

anyways the harmonization is cool i just have no idea where to take it
HELP
#2
This forum is for lyrics only. Please post this thread in the Riffs & Recordings section of UG
They say the old woman's got the wisdom
'Cause she couldn't read the clock anymore
She said "The numbers don't represent the moments"
Says she don't see what all the ticking's for