#1
Ok so this is the intro/chorus(?) i just figured out this riff. Its played fast sorta reminds of an As I Lay Dying song.


Guitar 1

E|----------------------------------------------|
B|----------------------------------------------|
G|----------------------------------------------|
D|----------------------------------------------|
A|----7h8-----7h8----7h8-------7h8p7-5h7p5-3h5p3|
D|0-0-----0-0------0------0-00------------------|

...then the second guitar comes in and harmonizes

Guitar 2

E|--------------------------------------------------------------|
B|--------------------------------------------------------------|
G|--------------------------------------------------------------|
D|----7h8-----8h10-----10h12------12h13p12-10h12p10-8h10p8-7h8p7|
A|0-0-----0-0------0-0-------0-00-------------------------------|
D|0-0-----0-0------0-0-------0-00-------------------------------|

anyways the harmonization is cool i just have no idea where to take it
HELP
Last edited by hah2488 at Jun 4, 2006,
#2
Pretty good start to what could be a great metalcore song. Basically, make a verse riff that's similar to this, only less choppy and more fluid. Then, for the chorus, I'd suggest intertwining power chords with fast leads that just serve as extra melody. Then maybe a breakdown with a riff very similar to the one you have here, and then go into a solo

Crit for crit?
https://www.ultimate-guitar.com/forum/showthread.php?t=370427