#1
hey..
i was messing around one day and came up with this scale type thing, and i dont know if it has a name, but i feel like i've heard it before.
its like this:

E:-20--15--13--12----------------------------------------------------
B:-----------------13------------------------------------------------
G:---------------------12--10--9-------------------------------------
D:--------------------------------10---------------------------------
A:-----------------------------------10--8--7------------------------
E:---------------------------------------------8--(3--1--0)----------


also, theres this variation of it that i came up with, it sounds pretty cool


                  T
E:-------12h13h15 20p15p13p12----------------------------------------
B:----13----------------------13----13-------13----------------------
G:-12----------------------------12----12s10----10s9h10p9----9h10h12p10p9
D:--------------------------------------------------------10---------
A:-------------------------------------------------------------------
E:-------------------------------------------------------------------


E:-------------------------------------------------------------------
B:-------------------------------------------------------------------
G:-------------------------------------------------------------------
D:-10----10------10--------------------------------------------------
A:----10----10s8----8s7h8p7------------------------------------------
E:-------------------------8-----------------------------------------

(all notes can be played the same speed, kinda fast, or the hammerons/pulloffs can be done a i little faster, thats how i do it)

anyway, could anybody tell me what this is called, if it has a name?
thanks
O.S.I.


Part of the 7-string Legion

Check out my profile
and my 7-string Ernie Ball MM JP-7 build


Last edited by 6DgOfInTb at Jun 4, 2006,
#3
if its confusing, i was referring to the first tab, and what it was called lol
it may be some kind of arpeggio..i'd just like a name to go with it :-p
O.S.I.


Part of the 7-string Legion

Check out my profile
and my 7-string Ernie Ball MM JP-7 build


#4
the notes are C-E-F-G right? it is a Cadd4 arpeggio. it is the 1(C)-3(E)-4(F)-5(G). its just the Cadd4 chord. someone can correct me if im wrong but i looked it up and that is what it looks like. sounds pretty cool though.