#1
Alright, so this may be a little lame cause I'm a pretty mediocre guitar player. P.S. I know most of it is centered around the same chord. P.P.S. It will probably not stay this way forever, I'm still working out the kinks and writing some new parts for it. It's all fingerpicked and even the strumming is with your thumb.

Order:
Part 1
..........
Part 2
..........
Part 3
..........
Part 1
..........
Part 2
..........
Part 3
..........
Part 4
..........
Part 5
..........
Part 6
..........

Part 1
e|-------0----------------0--------------------|
b|-1--------1-------1--------1-----------------|
g|-------0--0-------------0--0-----------------|
d|----0----------0-----0-----------0-----------|
a|-3----------3-----2-----------2--------------|
D|---------------------------------------------|
                                                 x3
e|-------0---------------------------0---------|
b|-1--------1-------1~--1h3p1--0---------------|
g|-------0--0-------0~--0------2--0--0---------|
d|---------------2-----------------------------|
a|-0--0-------0--------------------------------|
D|---------------------------------------------|

Part 2
e|----0-0-0-0-0-0-0-0------0-0-0-0-0-0-0-0-----|
b|-1--1-1-1-1-1-1-1-1---1--1-1-1-1-1-1-1-1-----|
g|----0-0-0-0-0-0-0-0------0-0-0-0-0-0-0-0-----|
d|----0-0-0-0-0-0-0-0------0-0-0-0-0-0-0-0-----|
a|-3--3-3-3-3-3-3-3-3---2--3-3-3-3-3-3-3-3-----|
D|----x-x-x-x-x-x-x-x------x-x-x-x-x-x-x-x-----|
                                                 x1
e|----0-0-0-0-0-0-0-0---------------------0~---|
b|-1--1-1-1-1-1-1-1-1--1~--1h3p1--0----0~------|
g|----0-0-0-0-0-0-0-0--0~--0------2--0~--------|
d|----0-0-0-0-0-0-0-0--------------------------|
a|-0--3-3-3-3-3-3-3-3--------------------------|
D|----x-x-x-x-x-x-x-x--------------------------|

Part 3
e|------0-0-0-0-0-0-0-0--------0-0-0-0-0-0-0-0-|
b|------1-1-1-1-1-1-1-1--------1-1-1-1-1-1-1-1-|
g|------0-0-0-0-0-0-0-0--------0-0-0-0-0-0-0-0-|
d|------0-0-0-0-0-0-0-0--------0-0-0-0-0-0-0-0-|
a|-2h3~-------------------3p2~-----------------|
D|---------------------------------------------|
                                                 x4
e|------0-0-0-0-0-0-0-0--------0-0-0-0-0-0-0-0-|
b|------1-1-1-1-1-1-1-1--------1-1-1-1-1-1-1-1-|
g|------0-0-0-0-0-0-0-0--------0-0-0-0-0-0-0-0-|
d|------0-0-0-0-0-0-0-0--------0-0-0-0-0-0-0-0-|
a|-2p0~-------------------0h2~-----------------|
D|---------------------------------------------|

Part 4
e|-----------------------------5~--------------|
b|------------------3~-----3---3~--------------|
g|-------2~-----2---2~-------4-----------9s7-7~|
d|---0---0~-------0------5-----------7---7---7~|
a|-----4------2------------------------5-------|
D|-4-------------------------------5-----------|

Part 5 (played softly and slowly)
e|---------------------------------------------|
b|---------------------------------------------|
g|-------------------0--0--0--0----------------|
d|--x--x--x--x--x----x--x--x--x----0--0--0-----|
a|--13-13-13-13-13---13-13-13-13---13-13-13----|
D|--13-13-13-13-13---13-13-13-13---13-13-13----|

Part 6
e|-------0----------------0--------------------|
b|-1--------1-------1--------1-----------------|
g|-------0--0-------------0--0-----------------|
d|----0----------0-----0-----------0-----------|
a|-3----------3-----2-----------2--------------|
D|---------------------------------------------|
                                                 
e|-------0---------------------------0---------|
b|-1--------1-------1~--1h3p1--0--------1~-----|
g|-------0--0-------0~--0------2--0--0---------|
d|---------------2-----------------------------|
a|-0--0-------0-------------------------3~-----|
D|---------------------------------------------|
Rob, that is the worst sweater I have ever seen. It's a Cosby sweater. A COHHHHHHSSSSSBYYY SSSWWWWEEEAAAAATTTTTAAAAAHHH!!!!

-Jack Black "High Fidelity"
#2
Its quite imaginative for something that is based around one chord, should be even better when you add other things to it, nice work