#1
*Make sure that you hold all the bass notes

e|-------------------------------3--2--0--------------|
b|-----0-----0--1----0--1--3-------------------3--1--0-|
g|----0---2--------------------------------------------|
d|---0-------------------------------------------------|
a|-----------------0-----------2-------------3---------|
E|--3--------------------------------------------------|

e|-----------------------------------------------------|
b|-----1--3--3------------------0----------------------|
g|----------------0-0-0-------2---2--------------------|
d|---0----------2-----------------------0--------------|
a|-------------------------3---------------------------|
E|-----------------------------------------------------|

e|--------------------------------3--2--0--------------|
b|-----0-----0--1----0--1--3-------------------3--1--0-|
g|----0---2--------------------------------------------|
d|---0-------------------------------------------------|
a|-----------------0-----------2-------------3---------|
E|--3--------------------------------------------------|

e|-----------------------------|
b|------0--1-------------------|
g|----2-------------2------0---|
d|--0---------0-----0-----0----|
a|-----------------------------|
E|------------------2----3-----|