#1
hey what key is this in and what scale should i use to solo over it


e|--------------------------------------
b|--------------------------------------
G|------------5-5-x--------7-7-7-----
D|--5-5-5-5xx-5-5-x-2-x-22-7-7-7
A|--5-5-5-5xx-3-3-x-2-x-22-5-5-5
E|--3-3-3-3xx-------0-x-00--------

e|--------------------------------------
b|--------------------------------------
G|------------5-5-x--------------------- 
D|--5-5-5-5xx-5-5-x-2-------------------
A|--5-5-5-5xx-3-3-x-2-------------------
E|--3-3-3-3xx--------0-------------------
#2
Key: G Major

Scales: G Major, E minor
My "Rig":

Fender American Telecaster
Boss OD-2
EHX Small Clone
EHX SMM avec HAZARAI