#1
i was just messing around on my guitar and i come up with this
what are the names of the chords, what key, and what scale?


e 12 12 12 12 12 12 12 12   10 10 10 10 10 10 10 10 12 12 12 12
B 12 12 12 12 12 12 12 12   10 10 10 10 10 10 10 10 12 12 12 12
G 11 11 11 11 11 11 11 11   11 11 11 11 
D
A
E
#7
It's in Dmaj, Em, F#m, Amaj, Bm and Gmaj. Scales that should be used would be E Minor, B minor, A major, or F# Minor or G minor.

The first chord (High e 10, B 10, G 11) is the top half of a Dmaj barre chord.

Same with the other chord that doesn't have the 11 on the G, Dmaj

The 11,12,12 is the top half of a Bsus

pretty easy
Yeah Dimebag is not the "Greatest Guitarist" of all time... Hendrix maybe... I must go get food to eat with my mouth

$250 for an amp? wow. is it worth it to invest that much in the amp?

#8
E||--12--12--12--12--12--12--12--12--|--10--10--10--10--10--10--10--10--|
B||--12--12--12--12--12--12--12--12--|--10--10--10--10--10--10--10--10--|
G||--11--11--11--11--11--11--11--11--|--11--11--11--11------------------|
D||--------------------------------------------|----------------------------------|
A||--------------------------------------------|----------------------------------|
E||-------------------------------------------|----------------------------------|

--12--12--12--12--12--12--12--12--
--12--12--12--12--12--12--12--12---
-------------------------------------------
-------------------------------------------
-------------------------------------------
-------------------------------------------

In the full chords would be this


Bsus -------------------------------------] D-----------------------------------------]

--12--12--12--12--12--12--12--12--|--10--10--10--10--10--10--10--10--|
--12--12--12--12--12--12--12--12--|--10--10--10--10--10--10--10--10--|
--11--11--11--11--11--11--11--11--|--11--11--11--11--11--11--11--11--|
---9----9---9----9---9----9---9-----9--|--12--12--12--12--12--12--12--12--|
--------------------------------------------|--12--12--12--12--12--12--12--12--|
--------------------------------------------|--10--10--10--10--10--10--10--10--|


E
--12--12--12--12--12--12--12--12--||
--12--12--12--12--12--12--12--12--||
--13--13--13--13--13--13--13--13--||
--14--14--14--14--14--14--14--14--||
--14--14--14--14--14--14--14--14--||
--12--12--12--12--12--12--12--12--||
Yeah Dimebag is not the "Greatest Guitarist" of all time... Hendrix maybe... I must go get food to eat with my mouth

$250 for an amp? wow. is it worth it to invest that much in the amp?

#9
Bsus4 (779977)or(x22452)
D (i think you know)
D (too)
E


For Scale Use Gammas!!!
War Is Over
(If You Want It)

SorryForMyEnglish=)))

Accordion Muse S 384-K
Last edited by fill at Feb 9, 2008,