#1

rules you must not copy no spam just give me opinion


Intro
e---------------------------------------------------------------------------
b---------------------------------------------------------------------------
g---7h9------7----------7h9-7---9----------------------------12----12----12-
d-------7--9---5-5-7p5--------9-----repeat-(x3)---------then-14b16-(hold)12-
a---------------------7--------------times----------------------------------
e---------------------------------------------------------------------------

Main riff
E--------------------------------------------------
B--------------------------------------------------
g----2b4b2p0------------2b4b2p0--------------------
d---2--------2-2-2----2--------2-2-2---------------
a---2--------2-2-2----2--------2-2-2---------------
e---0--------0-3-0----0--------0-3-0---------12/0--

2 times

-----------------------------
-----------------------------
-14b16-14-14b16-14-12~~------
-----------------------------
-----------------------------
------------------------12\--


E---------------------------------------
B---------------------------------------
g----2b4b2p0------------2b4b2p0---------
d---2--------2-2-2----2--------2-2-2----
a---2--------2-2-2----2--------2-2-2----
e---0--------0-3-0----0--------0-3-0----


At 0:43

------------------------------------------------
------------------------------------------------
----2(4).......... (3)2-2b3b2p0-----------------
-----------------------------------------2--2-2-
-----------------------------------------2--2-2-
-----------------------------------------0--3-0-


solo at 00:49

(play really fast, Play with it change things around, live he changes this riff every time, but its in this range.)

------12------12------------------------------------------------------
-15b17---15b17----15p12---------------------12-15b17------------------
------------------------14b16-14p12---12h14----------14-14p12---------
-------------------------------------14-------------------------14p12-
----------------------------------------------------------------------
----------------------------------------------------------------------

---------------------------
---------------------------
-14b16--12-14b16--12~~-----
---------------------------
---------------------------
-----------------------12\-


Main riff variation

e----------------------------------3-3-3----------
b----------------------------------3-3-3----------
g---------------2b4b2p0---------------------------
d------2-2-2-2------------2-2-2-2-----------------
a------2-2-2-2------------2-2-2-2-----------------
e------0-0-3-0------------0-0-3-0-----------------


Well I stand up next To a mountain

e----------------------------------------------------------
b----------------------------------------------------------
g------------------------------2b4b2p0---------------------
d-------------0--2-----------------------------------------
a--------0--2----------------------------------------------
e---0--3--------------0-3-0--------------------------------

Well I stand up next To a mountain

e------------3--0-----0----------------------------------
b---0--3--0--------3-------------------------------------
g-----------------------------------------2b4b2p0--------
d--------------------------------------------------------
a--------------------------------------------------------
e------------------------------0--3--0-------------------


e----------------------------------------------------------
b---0--h3p0--h3p0 h3p--------------------------------------
g---------------------0h2p0----------------2b4b2p0---------
d-----------------------------2--2--2--2-------------------
a-----------------------------2--2--2--2-------------------
e-----------------------------0--0--3--0-------------------

Well, I pick up all the pieces and make an island
Might even raise a little sand

e----------------------------------------------------------
b----------------------------------------------------------
g-----4-4-4-4-4-4-4-4-2-2-2-2-2-2-2-2----------------------
d-----0-0-0-0-0-0-0-0-0-0-0-0-0-0-0-0----------------------
a-----5-5-5-5-5-5-5-5-4-4-4-4-4-4-4-4----------------------
e----------------------------------------------------------
Last edited by s_5940 at Jun 9, 2006,
#2
continued


Cause I?m a voodoo child
Lord knows I?m a voodoo child baby

e----------------------------------------------------------
b----------------------------------------------------------
g-----3-3-3-3-3-3-3-3-5-5-5-5-5-5-5------------------------
d-----2-2-2-2-2-2-2-2-4-4-4-4-4-4-4------------------------
a-----3-3-3-3-3-3-3-3-5-5-5-5-5-5-5------------------------
e----------------------------------------------------------


e-----------------3333---------------------3---------------
b-----------------3333---------------------3---------------
g----------------------------------------------------------
d--2--2--2--2--2--------2--2--2--2--2----------------------
a--2--2--2--2--2--------2--2--2--2--2----------------------
e--0--0--0--3--0--------0--0--0--3--0----------------------


solo at

1:55

e---------------------------------------------------------------
b--15b17-15b17-15-12-15-15b17-----------------------------------
g--------------------------------12h14-12--14b16b14p12----------
d----------------------------12h14---------------------12--14---
a---------------------------------------------------------------
e---------------------------------------------------------------

2:05
a----------------------------------------------12h15-15b17-(hold)-
d----------------------------------------12h15--------------------
e---------------------------------12--14--------------------------
d--14-12--------------------12--14--------------------------------
a--------14-12-------12--14---------------------------------------
e--------------15-12----------------------------------------------

e-15b17-15-12----------------------------------------------------
b-------------15-12----------------------------------------------
g-----------------------12-----12-----12-----12--14b16-14-12-----
d-------------------12h14--12h14--12h14--12h14---------------14--
a----------------------------------------------------------------
e----------------------------------------------------------------


e----------------------------------------------------------
b----------------------------------------------------------
g---------------2b4b2p0------------------------------------
d------------------------2p0---------2-2-0-2---------------
a----------------------------2p0---------------------------
e---0-0-0-3-0--------------------3p0-----------------------

2:16 2:26
e------12----12-----12----------15b17------------------------------------
b--12h15-12h15--12h15--12h15---------------------------------------------
G------------------------------------------------------------------------
d------------------------------------------------------------------------
a------------------------------------------------------------------------
e------------------------------------------------------------------------


and continuing.......

e----------------------------------------------------------
b----------------------------------------------------------
g------------2b4b2p0------------2b4b2p0--------------------
d---2-2-2-2-----------2-2-2-2-2----------------------------
a---2-2-2-2-----------2-2-2-2-2----------------------------
e---0-0-3-0-----------0-0-0-3-0----------------------------

2:35
e----------------------------------------------------------
b----------------------------------------------------------
g--------------------------------------------2b4b2p0-------
a---2-2-2-2-------x-x-x-x-x--0h2p0h2p0h2p0-----------------
d---2-2-2-2-------x-x-x-x-x--------------------------------
e---0-0-3-0-------x-x-x-x-x--------------------------------


e----------------------------------------------------------
b----------------------------------------------------------
g----------------------------------------------------------
d---x-x-x-x-x-------0h2p0h2p0h2p0--------------------------
a---x-x-x-x-x----------------------------------------------
e---x-x-x-x-x----------------------------------------------

2:45
e-------------------12x-mute-at-12-------------------------
b-------------------12x------------------------------------
g---2x--------------12x ---------------------------------------
d---2x--------------12x ---------------------------------------
a---2x-----------------------------------------------------
e---2x-----------------------------------------------------


{repeat main riff a few times and use the hammer on pull off
on the a string, this is when jimi is singing
'i didn't mean to take up ....
and start using the main riff when he says
'i'll give it right back one of ....


e----------------------------------------------------------
b----------------------------------------------------------
g-----4-4-4-4-4-4-4-4-2-2-2-2-2-2-2-2----------------------
d-----0-0-0-0-0-0-0-0-0-0-0-0-0-0-0-0----------------------
a-----5-5-5-5-5-5-5-5-4-4-4-4-4-4-4-4----------------------
e----------------------------------------------------------

'If i don't mean you no more in this ....

{main riff}

e----------------------------------------------------------
b----------------------------------------------------------
g-----3-3-3-3-3-3-3-3-5-5-5-5-5-5-5------------------------
d-----2-2-2-2-2-2-2-2-4-4-4-4-4-4-4------------------------
a-----3-3-3-3-3-3-3-3-5-5-5-5-5-5-5------------------------
e----------------------------------------------------------
'coz i'm a voodoo chile, voodoo child...


solo at 3:38

E--------------------------------------------------------------
B-15b-br15-12-15-15bv-15brp12---12-----------15-12v------------
G-----------------------------14----12h14p12-------------------
D----------------------------------------------------12h14v----
A------------------------------------------------------------0-
E--------------------------------------------------------------

E--------------------------------------------------------12--15v--
B------------------------------------------------------12----------
G--14v-12-14-------14-------------------------12-14-15-------------
D------------14-12----12v---------------12-14----------------------
A---------------------------------12-15----------------------------
E---------------------------12-15----------------------------------

3:58 (wah wah wah) trem picking
e------------x---x------------33333-/-14141414-\121212--------
b------------12--12-----------33333-/-14141414-\121212--------
g------------12--12-------------------------------------------
d------------12--12-------------------------------------------
a-------------------------------------------------------------
e-12-15-12----------------------------------------------------

main riff and variations.......

Solo at 4:21

--------12(14)-12----12-----------------------------------------------
-/12-15-----------15----12-15----12-------------15--------------------
------------------------------14----12h14-14(16)--(16)14-12-14-12-----
------------------------------------------------------------------12\-
----------------------------------------------------------------------
#3
Learning this song from tab kinda defeats the purpose, its meant to be an improv song. But it looks about right.