#1
What kind of guitar does this guy play? Also does anyone know how to play all i need by him? Thanks
#3
hey if you like Shawn check out Paul Wright. anyways, the easiest way I have seen to play All I Need is to capo the 5th fret and play

(relative to capo)
e X---X---X---X
B 3---2---0---2
G 2---2---2---2
D 0---0---0---0
A X---X---X---X
E X---X---X---X

but he plays it like this:
(with a capo on 3 and sometimes the strings that are muted are unmuted)
(NOT relative to capo)
-x------x-----x-----x
-x------x-----x-----x
12---11----9-----11
12---12---10----12
10---10---10----12
-x-----x----8-----10
#4
man thats a sick tune by shawn mcdonald,, i know it

Shawn Mcdonald - All I need

capo 3 (relative to capo)

---0----0----0----0
---0----0----0----0
---9----8----6----8
---9----9----7----9
---7----7----7----9
---0----0----5----7

haha **** I just read the post above after I tabbed this out,, oh wellll,, how do you guys know shawn mcdonald anyways? never met anyone who actualy knew him but I got all my friends hooked on him