#1
mods- would you consider stickying this thread?

hey guys, i just thought it would be great if everybody submitted a fingerpicking pattern they like, and maybe give a chord that sounds nice with it

example: this is the fingerpicking pattern of led zep's bron-y-aur-stomp

f------------------0---------------------0------
a----------3------------------3----------------
f------4------------------4---------------------
c-------------5--------------------5-----------
f-----------------------------------------------
C-----------------------------------------------

or bob dylan' don't think twice its alright (somebody said it's called "travis style")

e -------------------------0--------------------------------------0-----------
b ---1--------------------------1--------1------------------------------1----
g ---------------0--------------------------------------0---------------------
d ---------2-------------------------------------2----------------------------
a ---3---------------3-------------------3-----------------3-----------------
E------------------------------------------------------------------------------

have fun!
Quote by JimmyPageSlash
nice i like how rocker clothes are cheap. im gonna be dressing completely rocker soon


TOOL ALERT
#2
I've always liked the intro to The Unforgiven by Metallica, which is a fingerstyle technique I believe:

Intro-Clean -guitar 1
||---------------------------------------------||4x
||--0-------0-------0-------0-------1-------||
||.---2-------2-------2-------2-------2----.||
||.-----2-------2-------2-------2-------2--.||
||--0-----------------------------------------||
||---------------------------------------------||
Fender American Deluxe V-Neck Strat
Laguna LG300CE Acoustic Electric
#4
Quote by thatgu1targuy
this wont get stickied, its just not that great of a thing
theres just too many different ways to fingerpick


that's the most ridiculous argument ever. why bother having a guitar site? there's just too many ways to play guitar.

if people submit a fingerpicking pattern, then you'll have many different ways to finger pick. not EVERY way, but more ways.
Quote by JimmyPageSlash
nice i like how rocker clothes are cheap. im gonna be dressing completely rocker soon


TOOL ALERT
#5
Here's dust in the wind (some more travis picking but i think its a little different)


e:------------------ |------------------|-------------------|-------------------|
B:-1---------1-----|-0---------0-----|-3---------0-----|-1---------1-----|
G:-------0-------0-|-------0-------0-|-------0-------0-|-------0-------0-|
D:-----2-------2---|-----2-------2---|-----2-------2---|-----2-------2---|
A:-3-------3-------|-3-------3-------|-3-------3-------|-3-------3-------|
E:------------------|------------------|------------------|-------------------|
#6
i just discovered this last night....i dunno how i know it but i had my guitar in open d, and it went

d --------------------0---------l-----------------------0------------
a----0--------------------------l----0-------------------------------
f#-----------0------------------l-------------0--------------------
d ---0---0-------0-------0-----l---0---0--------0--------0-------
a -------------------------------l-----------------------------------
D-------------------------------l------------------------------------

i played "cocaine" by bob dylan...not the one by jj cale. the chords, incase you want them are

D, G, D, A, D, G, D, A, D, F#7, G, D, A, D
Quote by JimmyPageSlash
nice i like how rocker clothes are cheap. im gonna be dressing completely rocker soon


TOOL ALERT
#7
I like the intro to Babe I'm Gonna Leave You by Led Zeppelin-

E ----0---------------------------------------------------------------------
B ---1---------1---------3---------1--------3-------1--------1-------0--
G --2--------2--------0---------0--------2-------2---------2-------1---
D -2-------2-------2---------2--------0--------0--------3--------2------
A 0------0-----------------------------------------------------------------
E ---------------3---------3--------2--------2--------1--------0--------

I dont want to post the hole thing because its way too long.
Fender American Deluxe V-Neck Strat
Laguna LG300CE Acoustic Electric
#8
if you want a whole bunch of patterns take a look at Giuliani's 120 right hand excercises....
wake the sun so the stars cant shine....
#9
ok first of all.... none of these are finger picking patterns. they are all just finger picking tabs.

and i don't think i even need to list a second of all.

BUT if you guys are going to do this... use the code tags so it'll be readable
#11
may i take the liberty to add that "Don't Think Twice..." is capo'd on the 4th fret...
#13
The pattern for most of the fourth movement of Koyunbaba is probably my "favorite", I guess lol...

There're powertabs for it on here. It's so fun, but hard to learn at first
My God, it's full of stars!
#14
Quote by frogan
if you want a whole bunch of patterns take a look at Giuliani's 120 right hand excercises....


I have that, it's pretty cool.
#15
Quote by TedZeppelin
and it's fingerstyle, not fingerpicking.


since it doesn't look like this thread is going to get stickied anyway.... i'm going to get a little off topic.

is there a difference in fingerstyle and fingerpicking?
#16
Maybe it'd get stickied if you guys put your tabs in tags like you're supposed to
Recognized by the Official EG/GG&A Who To Listen To List 2008
Quote by utsapp89
^I'd let a pro look at it. Once you get into the technicalities of screws...well, it's just a place you don't want to be, friend.