#1
Does anyone else alive realize that Cliff plays a bass solo at the 1:42 mark where every tab I've found says to play:
---0-----3----3-------0
------0------------0-------

I swear Cliff's playing distorted bass through his wah pedal from 1:42 - 2:12 mark. Anyways I want to find a tab for it. It sound like the riff above played with 0000's in between but with higher and more notes.






:stickpoke:
#2
Quote by 4Key
Does anyone else alive realize that Cliff plays a bass solo at the 1:42 mark where every tab I've found says to play:
---0-----3----3-------0
------0------------0-------

I swear Cliff's playing distorted bass through his wah pedal from 1:42 - 2:12 mark. Anyways I want to find a tab for it. It sound like the riff above played with 0000's in between but with higher and more notes.



dude that tab is garbage check the one on this site theres a good one here, where the hell did you get that tab from?
#3
as far as the 1:42 - 2:12 mark all the tabs I can find are garbage. screw it, I'll plug my bass into my MT-2 and figure it out.






:stickpoke:
#5
cliff does play a higher melody at that point, the original poster was correct in what it sounds like I think from the kinda vague description I've suspected that this was bass for a while, and seeing Metallica playing it live the other day, its definately bass. No idea what it is exactly though
#6
Its exactly the same as the heavy riff after it except up 2 octaves, and theres actually 2 bass tracks at that point so hes playing both the high melody and the root notes...but yea, heres a tab....


     S  S  S  S  E  S  S  S   S  E   S  S  S  S   E  S  S  S  S  E  S  S  E  S  S  E 
||--------------14--------------16--------------|-17----------------------------------|
||o-14-14-14-14----14-14-14--14-----14-14-14-14-|----14-14-14-14-14-14-14-15-15-15-14-|
||o---------------------------------------------|-------------------------------------|
||----------------------------------------------|-------------------------------------|


  S  S  S  S  E  S  S  S   S  E   S  S  S  S     E  S  S  S  S  E  S  S  E  S  S  E
|-------------17--------------16---------------|-14-----------------------------------||
|-14-14-14-14----14-14-14--14-----14-14-14-14--|----14-14-14-14-14-14-14-15-15-15-14-o||
|----------------------------------------------|-------------------------------------o||
|----------------------------------------------|--------------------------------------||
#8
thanks for the tab. i was trying something like that, but couldn't get the notes right.






:stickpoke:
#9
Quote by Weebl
Its exactly the same as the heavy riff after it except up 2 octaves, and theres actually 2 bass tracks at that point so hes playing both the high melody and the root notes...but yea, heres a tab....


S S S S E S S S S E S S S S E S S S S E S S E S S E
||--------------14--------------16--------------|-17----------------------------------|
||o-14-14-14-14----14-14-14--14-----14-14-14-14-|----14-14-14-14-14-14-14-15-15-15-14-|
||o---------------------------------------------|-------------------------------------|
||----------------------------------------------|-------------------------------------|


S S S S E S S S S E S S S S E S S S S E S S E S S E
|-------------17--------------16---------------|-14-----------------------------------||
|-14-14-14-14----14-14-14--14-----14-14-14-14--|----14-14-14-14-14-14-14-15-15-15-14-o||
|----------------------------------------------|-------------------------------------o||
|----------------------------------------------|--------------------------------------||


Soooo thats why when i plyed it up top it sounded like crapp....
M374L


Quote by happytimeharry
This is why I'm proud to be an American. Keep your free health care. We get free boxes...



Quickstrike of the Predacons Beast Wars Club
PM NightmareXT To Join!


Bass Militia's Resident Viking PM jazz_rock_feel
#10
the only cliif burton solo in orion im aware of is at 6:35
i need to get a better signature.
#11
The original post tab was technically correct. In the tab book that is what it is, and it dont do the solo bit.
Although recently seein em play it, rob plays the 'solo' bit. So who knows, both ways r techinically correct as long as some1 is playin the other bit i guess:P

On the actual recording someone else must have recorded the part, lets face it until now we aint had a live recording to go off so.......