#1
played at 132bpm


amp marshall g30rcd-settings:channel:2 gain:5 bass:10 contour(mid):10 treble:10 volume:5
guitar epi les paul all 10

intro-treble:
|----------------|--------------|----------------|-----------------|--------------|
|5-3-------3-----|5-3-------3-5-|5-3-------3-----|5-3-------3-5/8--|8-10-8--------|
|----5-2-5---5-2-|----5-2-5-----|----5-2-5---5-2-|----5-2-5--------|-------9-7----|
|----------------|--------------|----------------|-----------------|-----------10-|
|----------------|--------------|----------------|-----------------|--------------|
|----------------|--------------|----------------|-----------------|--------------|


|----------------|---------------|----------------|-------------------------|
|--8-10-8--------|--8-10-8-------|----------------|--10-8-------------------|
|---------9-7----|---------9-7-9-|----7-9----7-9--|-------9-7----7----9-----|
|-------------10-|---------------|--10-----10-----|-----------10------------|
|----------------|---------------|----------------|-------------------------|
|----------------|---------------|----------------|-------------------------|

verse-rhythm:
|--333--333|--555--555|--111--111|--333--333|                 
|--555--555|--666--666|--111--111|--333--333|
|--555--555|--777--777|--222--222|--444--444|
|--555--555|--777--777|--333--333|--555--555|
|--333--333|--555--555|--333--333|--555--555|
|----------|----------|--111--111|--333--333|


|--333--333|--111--111|--555--555|--333--333|
|--555--555|--111--111|--666--666|--333--333|
|--555--555|--222--222|--777--777|--444--444|
|--555--555|--333--333|--777--777|--555--555|
|--333--333|--333--333|--555--555|--555--555|
|----------|--111--111|----------|--333--333|


|--333--333|--555--555|--111--111|--333--333|
|--555--555|--666--666|--111--111|--333--333|
|--555--555|--777--777|--222--222|--444--444|
|--555--555|--777--777|--333--333|--555--555|
|--333--333|--555--555|--333--333|--555--555|
|----------|----------|--111--111|--333--333|


|--333--333|--111--111|--555--555|--333--333|
|--555--555|--111--111|--666--666|--333--333|
|--555--555|--222--222|--777--777|--444--444|
|--555--555|--333--333|--777--777|--555--555|
|--333--333|--333--333|--555--555|--555--555|
|----------|--111--111|----------|--333--333|


fill-treble
|--------------------|
|--10\5--3-------3~--|
|----------5-2-5-----|
|--------------------|
|--------------------|
|--------------------|

chorus-rhythm


|--333--333|--333--333|--111--111|--555--555|
|--555--555|--333--333|--111--111|--666--666|
|--555--555|--444--444|--222--222|--777--777|
|--555--555|--555--555|--333--333|--777--777|
|--333--333|--555--555|--333--333|--555--555|
|----------|--333--333|--111--111|----------|


|--333--333|--333--333|--111--111|--333--333|
|--555--555|--333--333|--111--111|--555--555|
|--555--555|--444--444|--222--222|--555--555|
|--555--555|--555--555|--333--333|--555--555|
|--333--333|--555--555|--333--333|--333--333|
|----------|--333--333|--111--111|----------|


fill-treble
|------------------|--------------------|
|------------------|--8b10--5-----5-3-1~|
|--5h7--7b9p5---5--|----------7-5-------|
|-------------5----|--------------------|
|------------------|--------------------|
|------------------|--------------------|


verse-rhythm:
|--333--333|--555--555|--111--111|--333--333|                 
|--555--555|--666--666|--111--111|--333--333|
|--555--555|--777--777|--222--222|--444--444|
|--555--555|--777--777|--333--333|--555--555|
|--333--333|--555--555|--333--333|--555--555|
|----------|----------|--111--111|--333--333|


|--333--333|--111--111|--555--555|--333--333|
|--555--555|--111--111|--666--666|--333--333|
|--555--555|--222--222|--777--777|--444--444|
|--555--555|--333--333|--777--777|--555--555|
|--333--333|--333--333|--555--555|--555--555|
|----------|--111--111|----------|--333--333|


|--333--333|--555--555|--111--111|--333--333|
|--555--555|--666--666|--111--111|--333--333|
|--555--555|--777--777|--222--222|--444--444|
|--555--555|--777--777|--333--333|--555--555|
|--333--333|--555--555|--333--333|--555--555|
|----------|----------|--111--111|--333--333|


|--333--333|--111--111|--555--555|--333--333|
|--555--555|--111--111|--666--666|--333--333|
|--555--555|--222--222|--777--777|--444--444|
|--555--555|--333--333|--777--777|--555--555|
|--333--333|--333--333|--555--555|--555--555|
|----------|--111--111|----------|--333--333|


fill-treble
|--------------------|
|--10\5--3-------3~--|
|----------5-2-5-----|
|--------------------|
|--------------------|
|--------------------|

chorus-rhythm


|--333--333|--333--333|--111--111|--555--555|
|--555--555|--333--333|--111--111|--666--666|
|--555--555|--444--444|--222--222|--777--777|
|--555--555|--555--555|--333--333|--777--777|
|--333--333|--555--555|--333--333|--555--555|
|----------|--333--333|--111--111|----------|


|--333--333|--333--333|--111--111|--333--333|
|--555--555|--333--333|--111--111|--555--555|
|--555--555|--444--444|--222--222|--555--555|
|--555--555|--555--555|--333--333|--555--555|
|--333--333|--555--555|--333--333|--333--333|
|----------|--333--333|--111--111|----------|


solo-treble
|----------------|-----------------|----------------|------------------------|----------
|----------------|-----------------|----------------|------------------------|----------
|----------------|-----------------|----------------|-----------------7-9----|--7-9-----
|----------------|---------7-------|----------------|------------7-10-----10-|------10-7
|-------7-10-----|-------7---9-----|-------7-10-----|-------7-10-------------|----------
|--8-10----------|--8-10-----------|--8-10----------|--8-10------------------|----------


|----------------|----------------|------------------|----------------------|-
|--10b12--8-10---|--10b12--8-10---|--10b12--8-10-----|----------------------|-
|--------------9-|--------------9-|--------------9-7-|----------9-7---------|-
|----------------|----------------|------------------|--10p7--7-----10p7--7-|-
|----------------|----------------|------------------|----------------------|-
|----------------|----------------|------------------|----------------------|-


|--------------------------------------|
|--------------------8-10~-------------|
|-------9-7------7-9-------------------|
|--10-7-----7-10-----------------------|
|--------------------------------------|
|--------------------------------------|


chorus-rhythm


|--333--333|--333--333|--111--111|--555--555|
|--555--555|--333--333|--111--111|--666--666|
|--555--555|--444--444|--222--222|--777--777|
|--555--555|--555--555|--333--333|--777--777|
|--333--333|--555--555|--333--333|--555--555|
|----------|--333--333|--111--111|----------|


|--333--333|--333--333|--111--111|--333--333|
|--555--555|--333--333|--111--111|--555--555|
|--555--555|--444--444|--222--222|--555--555|
|--555--555|--555--555|--333--333|--555--555|
|--333--333|--555--555|--333--333|--333--333|
|----------|--333--333|--111--111|----------|

still working on second solo and outro
Last edited by spaminator101 at Jun 13, 2006,
#3
well i came up with the verse just kinda playing around a little and then i noticed it was in Cmaj so i started messing around with the pentatonic scale and i got the first little riff and then got the second and combined them