#1
184bpm



G|--------|--------
D|--------|-----1~-
A|00300020|0030----x8
E|--------|--------

G|--------|--------|--------|--------|--------|--------|--------|--------
D|--------|--------|--------|--------|--------|--------|--------|--------
A|55555555|33333333|22332233|22332233|55555555|33333333|00330033|00330033
E|--------|--------|--------|--------|--------|--------|--------|--------

G|--------|--------|--------|--------|--------|--------|--------|--------
D|--------|--------|--------|--------|--------|--------|--------|--------
A|55555555|33333333|22332233|22332233|55555555|33333333|00220022|00220022
E|--------|--------|--------|--------|--------|--------|--------|--------

G|--------|--------
D|--------|-----1~-
A|00300020|0030----x4
E|--------|--------

G|--------|--------|--------|--------|--------|--------|--------|--------
D|--------|--------|--------|--------|--------|--------|--------|--------
A|55555555|33333333|22332233|22332233|55555555|33333333|00330033|00330033
E|--------|--------|--------|--------|--------|--------|--------|--------

G|--------|--------|--------|--------|--------|--------|--------|--------
D|--------|--------|--------|--------|--------|--------|--------|--------
A|55555555|33333333|22332233|22332233|55555555|33333333|00220022|00220022
E|--------|--------|--------|--------|--------|--------|--------|--------

G|--------|--------|--------|--------|--------|--------|--------|--------
D|--------|--------|--------|--------|--------|--------|--------|55544422
A|00000000|33333320|00000000|33333320|00000000|33333320|00000000|--------x2
E|--------|--------|--------|--------|--------|--------|--------|--------

G|--------|--------
D|--------|-----1~-
A|00300020|0030----x8
E|--------|--------

G|--------|--------|--------|--------|--------|--------|--------|--------
D|--------|--------|--------|--------|--------|--------|--------|--------
A|55555555|33333333|22332233|22332233|55555555|33333333|00330033|00330033
E|--------|--------|--------|--------|--------|--------|--------|--------

G|--------|--------|--------|--------|--------|--------|--------|--------
D|--------|--------|--------|--------|--------|--------|--------|--------
A|55555555|33333333|22332233|22332233|55555555|33333333|00220022|00220022
E|--------|--------|--------|--------|--------|--------|--------|--------

G|--------|--------
D|--------|-----1~-
A|00300020|0030----x4
E|--------|--------

G|--------|--------|--------|--------|--------|--------|--------|--------
D|--------|--------|--------|--------|--------|--------|--------|--------
A|55555555|33333333|22332233|22332233|55555555|33333333|00330033|00330033
E|--------|--------|--------|--------|--------|--------|--------|--------

G|--------|--------|--------|--------|--------|--------|--------|--------
D|--------|--------|--------|--------|--------|--------|--------|--------
A|55555555|33333333|22332233|22332233|55555555|33333333|00220022|00220022
E|--------|--------|--------|--------|--------|--------|--------|--------

G|--------|--------
D|--------|-----1~-
A|00300020|0030----x4
E|--------|--------
#2
oh my sweetie, this does look kewl, ill get Bryan (my bass player) to play it later and see hoe it turns out, it looks well though
#3
If this is how it's supposed to sound, then it was catchy. Too continuous for me to pay attention to (I drifted around 1 minute), but I liked it. It was more of a support bass than an actual song for the bass if you ask me.
"Chuck-E-Cheese called. They want their band back."
#4
It is kinda continuous, the idea was to have a...central driving rhythm to it, to just...boogie to or something

Don't really have any guitar for it now but I was planning to do something along the lines of...

The first bit and all the other bits that are that same riff just be bass & drums

Then the second riff bit has some rhythm guitar

And the third bit has the solo over the top


It's not meant to be complex or anything, just catchy and fun
#5
Its seems like a normal metal bass song to me, I like it it is catchy
Quote by unfathomable_bo
Well it isnt hard to bend a string that has the tension of a piece of well cooked spaghetti, especially when you have hands like goalkeeper gloves


My songs: (more to come) (C4C's)
Screams fell silent underneath the black sun
#6
Quote by God Am
If this is how it's supposed to sound, then it was catchy. Too continuous for me to pay attention to (I drifted around 1 minute), but I liked it. It was more of a support bass than an actual song for the bass if you ask me.

If by continuous he meant repetitive, then I agree. But it's bass, and it's pretty groovy. I like it.
And yeah, I was just going to say that it's definitely in need of other instruments, but you already commented on that. Either way, if you ever add the other parts, post it.
Currently Playing:
1986 H-H Contemporary Fender Telecaster
Backup:
Ibanez Ex Series
Customized SSS Starter Stratocaster
#8
Quote by GiantRaven
It is kinda continuous, the idea was to have a...central driving rhythm to it, to just...boogie to or something

Like A Dance Mix? I'm Blue Da Da Dee Da De Da
or what?
#10
NEVER put your writings online, someone will steal it and make a hit song out of it, it is catchy, good material
I poke badgers with spoons!
#11
What're they gonna do with it?

It's part of a bassline

If they aren't creative enough to come up with that simple thing then they just shouldn't even bother