#1
I came up with this bluesy sounding riff a little while ago, it sounds similar to another blues riff that I heard but I came up with this on my own, i use it for a warmup excercise too played at any speed.


E------------------------------------------------------------------
B------------------------------------------------------------------
G------------------------------------------------------------------
D-------------------------------------------------------1--2-------
A------------1--2------------------1--2------0--0--3--4------3--4--
E-0--0--3--4------3--4--0--0--3--4------3--4-----------------------

|-------------------------------------------------------------------------------------------|
|-------------------------------------------------------------------------------------------|
|-------------------------------------------------------------------------------------------|
|----------------------0--0--4--2--------------------------------------------------------2--|
|------------1--2-----------------3--4------------------1--2------------------1--2-------2--|
|-0--0--3--4------3--4-----------------3--4--0--0--3--4------3--4--0--0--3--4------3--4--0--|
"All Randy ever wanted to do was play the guitar."

Quote by Xenn99
Or...were you playing Fallout Boy? Because then it's obvious what happened. Your Low E String committed suicide.


"I don't fucking eat donuts"
#7
It sounds like it would be good as a palm muted verse for a bluesy song. about 120 bpm is what I play it at. I actually prefer it un-shuffled.