#1
[font="Courier New"]|-------------------------------|
|-----------------------------h-|
|0-0-5-0-0-8-0-0-7-0-0-3-0-0-5-7|
|-------------------------------|
|-------------------------------|
|-------------------------------|

|------------------------------|
|----------------------------V~|
|0-0-5-0-0-8-0-0-7-0-0-3-0-0-5-|
|------------------------------|
|------------------------------|
|------------------------------|

|--------------------------------|
|------------------------------p-|
|0-0-5-0-0-8-0-0-7-0-10-0-8-0-8-7|
|--------------------------------|
|--------------------------------|
|--------------------------------|

|------------------------------|
|----------------------------ph|
|0-0-5-0-0-8-0-0-7-0-0-3-0-0-5-|
|------------------------------|
|------------------------------|
|------------------------------|[/FONT]


this is my little intro riff. if you can't figure the tempo i advise you to listen to "To the Fallen Hero" by god forbid and listen to the intro critiques thanx.
#2
Wow thats pretty awesome. Fun to play, sounds cool too.
Gear
-Ibanez Soundgear SRX3EXQM1 (yeah, long name)
-Fender Rumble 100

A recent study shows that 92% of all teenagers have moved on to rap music. Put this in your sig if you are one of the 8% who stayed with real music.
#3
^i disagree with those first two statements.
but it did sound good when played fast.
maybe you could venture away from the g string....