#1
Well here it is. This is my first tabbed out bassline, so please, show some mercy

Tabbed By : Ben
e-mail: mvsuperstang@mchsi.com

Tuning: E-A-D-G

Intro x1 (quarter, quarter, trip-a-let)

G|-----7------------------7-------------------------------------------------|
D|--------7--5--4-----------7--5--4---------------------------------------|
A|--5------------------5-----------------------------------------------------|
E|----------------------------------------------------------------------------|

G|-----7------------------7-------------------------------------------------|
D|--------7--5--4-----------7--5--4--------------------------------------|
A|--5------------------5----------------------------------------------------|
E|---------------------------------------------------------------------------|

Verse x 4 (steady 8th notes)

G|---------------------------------------------------------------------|
D|-----------------------5h7-----------------------------------------|
A|-5--5--5--5--5h7------------------------------------------------|
E|---------------------------------------------------------------------|

Chorus x 2 (steady 8th notes)

G|---------------------------------------------------------------------------| note in ( )
D|-------------------------------------------------------3-------------------|
A|-5--5--5--5--7--7--7--7--5--5--5--5--3--3--3---------(5)-------| <- only play 2nd time
E|---------------------------------------------------------------------------| and let ring 8 counts

Verse

Chorus

Outro x3 (Whole notes, let ring)

G|------------------| |---------------|
D|--5--3-----------| |---------------| <- Last time ONLY
A|---------3--5----| |--5--3--5----| (fast triplet, sticcato)
E|------------------| |---------------|


| / slide up
| \ slide down
| h hammer-on
| p pull-off
| ~ vibrato
| + harmonic
| x Mute note
============================================================


Crit for Crit?
Gear
-Ibanez Soundgear SRX3EXQM1 (yeah, long name)
-Fender Rumble 100

A recent study shows that 92% of all teenagers have moved on to rap music. Put this in your sig if you are one of the 8% who stayed with real music.
Last edited by Benny989 at Jun 16, 2006,
#2
cool, but the outro could use a bit of tweaking, like G-F-D-C, then after last time, A-G-F quick triplet, or something
#3
I will take that into consideration...
Gear
-Ibanez Soundgear SRX3EXQM1 (yeah, long name)
-Fender Rumble 100

A recent study shows that 92% of all teenagers have moved on to rap music. Put this in your sig if you are one of the 8% who stayed with real music.
#4
45 views and 2 replies? Come on guys...
Gear
-Ibanez Soundgear SRX3EXQM1 (yeah, long name)
-Fender Rumble 100

A recent study shows that 92% of all teenagers have moved on to rap music. Put this in your sig if you are one of the 8% who stayed with real music.
#5
Cool bassline. I dont play bass that much but i like this line.
Although i would change the outro. 4string's suggestion would work nicely
Epi LP--->Digitech RP3--->Crate GT-200