#1
Gah...Riff..>W/e


E|-2-2-222---------------------------
B|-2-2-2223-3-333-3----------3-3-32-2
G|-4-4-4442-2-222-2--2-2-222-2-2-22-2
D|-4-4-4440-0-000-0--2-2-222-0-0-02-2
A|-2-2-2220-0-000-0--0-0-000---------
E|-2-2-222---------------------------

E|-2-2-222-------------------3-3-32-2 
B|-2-2-2223-3-333-3----------3-3-33-3
G|-4-4-4442-2-222-2--2-2-222-0-0-00-0
D|-4-4-4440-0-000-0--2-2-222---------
A|-2-2-2220-0-000-0--0-0-000---------
E|-2-2-222---------------------------
How long have you gone w/o Masturbating

About a month or so. Had somebody else doing it for me at the time.
#2
umm....what?
Gear:

Ibanez SoundGear SR300DX Bass

Digitech BP200
#3
Quote by CmS
Gah...Riff..>W/e




english plz
"This is gunna blow my cover but I like the FedEx driver because he's a drug dealer and he doesn't even know it"-Mitch Hedberg RIP
#4
thats just Bsus2, D5/A, A5, D5, A
Quote by T.S.R.
what?
if i were a midget...id go masturbate in public because...hey, im a midget and i can get away with anything


Quote by yawn
I heard Hitler was a pretty good guitarist back in his day...


Quote by guitar?
You're a towel.